MUZBANK



A MOST COMPLETE BANK OF MUSIC INFORMATION

МУЗЫКАЛЬНО-ИНФОРМАЦИОННЫЙ БАНК







    SSevendust • Praise (аккорды и текст - chords & lyrics)


    275

    Print

    Видео «Praise (Sevendust)»

    Видео клипы к песне подбираются автоматически сайтом youtube. Возможны некоторые несоответствия клипов песне.

    ↑ Спрятать рекламу ↑






     
    
    
    Praise-Sevendust
    Animosity
    
    Drop B
    B F# B E G# C#
    
    
    C#----------------------------------------------------------------
    G#----------------------------------------------------------------
    E-----------------------------------------------------------------
    B---------------3---3-----------3---3-----------3---3-------------
    F#-------------------------------------------------------2--------
    B---0-2---2---2---2---2---2---2---2---2---2---2---2---2--2-0-2-0-2
                                                               pm
                                                           
    C#----------------------------------------------------------------
    G#----------------------------------------------------------------
    E-----------------------------------------------------------------
    B---------------3---3-----------3---3-----------3---3-------------
    F#--0-2-----------------------------------------------------------
    B---0-2---2---2---2---2---2---2---2---2---2---2---2---2---2-------
    
    fig 1.
    
    C#----------------------------------------------------------------
    G#----------------------------------------------------------------
    E-----------------------------------------------------------------
    B---------------3---3-----------3---3-----------3---3-------------
    F#--0-2---2---2-x-2-x-2---2---2-x-2-x-2---2---2-x-2-x-2--2-0-2-0-2
    B---0-2---2---2-3-2-3-2---2---2-3-2-3-2---2---2-3-2-3-2--2-0-2-0-2
                                                             pm
    verse 1
    
    C#----------------------------------------------------------------
    G#----------------------------------------------------------------
    E-----------------------------------------------------------------
    B---------------3---3-----------3---3-----------3---3-------------
    F#----------------------------------------------------------------
    B---0-2---2---2---2---2---2---2---2---2---2---2---2---2--2-0-2-0-2
    
    C#----------------------------------------------------------------
    G#----------------------------------------------------------------
    E-----------------------------------------------------------------
    B---------------3---3-----------3---3-----------3---3-------------
    F#----------------------------------------------------------------
    B---0-2---2---2---2---2---2---2---2---2---2---2---2---2---2-------
    2nd and 3rd verse
    
    C#----------------------------------------------------------------
    G#----------------------------------------------------------------
    E--------------10--10----------10--10----------10--10-------------
    B-----------------------------------------------------------------
    F#--------------8---8-----------8---8-----------8---8------0-2-0-2
    B---0-2---2---2---2---2---2---2---2---2---2---2---2---2--2-0-2-0-2
    
    pre chorus
    gtr 3 w/ chorus and delay x2
    C#----------------------------------------------------------------
    G#----------------------------------------------------------------
    E-------------------9----10-7-----------------------9-9-9-9-9-9-9-
    B-------------------x-----x-x-----------------------x-x-x-x-x-x-x-
    F#------------------7-----8-5-----------------------7-7-7-7-7-7-7-
    B-----------------------------------------------------------------
    gtr 2
    C#----------------------------------------------------------------
    G#----------------------------------------------------------------
    E-----------------------------------------------------------------
    B-------------------8-8-8-8-------------------------8-8-8-8-8-8-8-
    F#--2-2-2-0-0-2-2-0-7-7-7-7-8-8-8-8-2-2-2-0-0-2-2-0-7-7-7-7-7-7-7-
    B---2-2-2-0-0-2-2-0---------8-8-8-8-2-2-2-0-0-2-2-0---------------
    
    C#----------------------------------------------------------------
    G#----------------------------------------------------------------
    E-----------------------------------------------------------------
    B-------------------8-8-8-8-------------------------8-8-8-8-8-8-8-
    F#--2-2-2-0-0-2-2-0-7-7-7-7-8-8-8-8-2-2-2-0-0-2-2-0-7-7-7-7-7-7-7-
    B---2-2-2-0-0-2-2-0-8-8-8-8-8-8-8-8-2-2-2-0-0-2-2-0-8-8-8-8-8-8-8-
    
    chorus x2 fig 3
    C#----------------------------------------------------------------
    G#----------------------------------------------------------------
    E---------------------------9-9-7-9-------------------------------
    B---2-2-2-2-2-2-2-2-0-0-0-0-x-x-x-x-8-8-8-8-8-8-8-8-12121212121212
    F#--2-2-2-2-2-2-2-2-0-0-0-0-7-7-5-7-8-8-8-8-8-8-8-8-10101010101010
    B---2-2-2-2-2-2-2-2-0-0-0-0---------8-8-8-8-8-8-8-8-10101010101010
    after chorus
    C#----------------------------------------------------------------
    G#------------------------------------------5-5-6-6-6-6-5-5-------
    E-------------------7
     

    Тональность:

    Это должно быть в ТОП-листе! - Топ-лист композиций



    Назад
    Рекомендуем посмотреть другие песни исполнителя «Sevendust»:

    • Комменты Fb ()
    • Комменты ВК



    Добавить в Избранное Браузера
    Сохранить здесь Очистить


    x

    0


    +
    -

    +
    -

    -

    Авторизация





    Зарегистрироваться

    M

    Дата и время

    • 09:36:18
       

    Социальные ссылки


    Наши приложения

    • Muzbank App Play Market
    • Muzbank Amazon App
    • Muzbank Bitcoin13igjuWJj2R4cHiyZqP7Q3ggVvfXE9j82Q