MUZBANK



A MOST COMPLETE BANK OF MUSIC INFORMATION

МУЗЫКАЛЬНО-ИНФОРМАЦИОННЫЙ БАНК







    SSevendust • To Close To Hate (аккорды и текст - chords & lyrics)


    310

    Print

    Видео «To Close To Hate (Sevendust)»

    Видео клипы к песне подбираются автоматически сайтом youtube. Возможны некоторые несоответствия клипов песне.

    ↑ Спрятать рекламу ↑





     
    
    
    Sevendust
              To Close To Hate
              
              Tabbed by Jared
              
              RIFF A:
              
                 C#|--------------------------------------------|
                 G#|--------------------------------------------|
                  E|--------------------------------------------| 
                  B|-----------------------------------6-6-6-6--| 
                 F#|--0--0--0--0--0--0--0--0--0--0--0--6-6-6-6--| 
                  B|--0--0--0--0--0--0--0--0--0--0--0--6-6-6-6--|
              
                   RIFF B:
              
                 C#|--------------------------------|
                 G#|--------------------------------|
                  E|--------------------------------| 
                  B|--------------------------------| 
                 F#|--3p0-0--3p-0-0-0-0---0-0-------| 
                  B|--3p0-0--3p-0-0-0-0---0-0--6/5--|
              
                   RIFF C:
              
                 C#|---------------------------------|
                 G#|---------------------------------|
                  E|---------------------------------| 
                  B|---------------------------------| 
                 F#|--3p0-0--3p0-0-------------------| 
                  B|--3p0-0--3p0-0---3b----3b----3b--|
     

    Тональность:

    Это должно быть в ТОП-листе! - Топ-лист композиций



    Назад
    Рекомендуем посмотреть другие песни исполнителя «Sevendust»:

    • Комменты Fb ()
    • Комменты ВК



    Добавить в Избранное Браузера
    Сохранить здесь Очистить


    x

    0


    +
    -

    +
    -

    -

    Авторизация





    Зарегистрироваться

    M

    Дата и время

    • 07:22:49
       

    Социальные ссылки


    Наши приложения

    • Muzbank App Play Market
    • Muzbank Amazon App