MUZBANK


МУЗЫКАЛЬНО-ИНФОРМАЦИОННЫЙ БАНК





ССеверный Флот • Стрелы (аккорды и текст - chords & lyrics)


1764

Print

Видео «Стрелы (Северный Флот)»

Видео клипы к песне подбираются автоматически сайтом youtube. Возможны некоторые несоответствия клипов песне.

↑ Спрятать рекламу ↑





Am G  F  E
F  Dm C  E

Am
Скрытый под масками солнца сын,
C
Кончилась сказка, и ты один,
        F          Dm        E
Тебе просто стало так много лет...
Чувствуешь дерево кожей рук?
Вот она - дверь - замыкает круг
Между жизнью и не жизнью твоей на земле.

  Am  G      F                  E
  Дело не доделано, кровь не остыла ещё,
  И тело не согнули в бараний рог.
  Знаю, за тебя всё измерили, ты не уверен, но
  Стрелы выгоняют зверей из берлог.

Ноги не помнят, куда идти,
Руки не знают, кого спасти,
Этот город станет летним дождем.
В теплые шорохи наших снов
Ты ушел - гордый Король Шутов,
Только знай, что мы все здесь,
И мы все тебя ждём.

  Дело не доделано, кровь не остыла ещё,
  И тело не согнули в бараний рог.
  Знаю, за тебя всё измерили, ты не уверен, но
  Стрелы выгоняют зверей из берлог.



/Вариант уточненный:/
 Am 
Скрытый под масками солнца сын,
 C
Кончилась сказка - и ты один,
 Fmaj7 Dm E
Тебе стало просто так много лет.
 Am 
Чувствуешь дерево кожей рук,
 C
Вот она - дверь замыкает круг,
 Fmaj7 Dm E F (Fadd11+)
Между жизнью и не жизнью твоей на земле.

/Припев:/
Am Bm5- Fmaj7 Em7 (Emadd13- Em)
Дело не доделано, кровь не остыла еще
И тело не согнули в бараний рог.


[Табулатура для электро-гитары с опущенной 6-ой струной на тон, строй: Drop D]

/Riff 1/

***Guitar 1:

E||----------------------------------|----------------------------------|
B||----------------------------------|----------------------------------|
G||----------------------------------|----------------------------------|
D||----------------------------------|----------------------------------|
A||--0-0-0-0-0-0-0-0-0-0-0-0-0-0-0-0-|--2-2-2-2-2-2-2-2-2-2-2-2-2-2-2-2-|
D||----------------------------------|----------------------------------|

 
----------------------------------|----------------------------------|
----------------------------------|----------------------------------|
----------------------------------|----------------------------------|
----------------------------------|----------------------------------|
----------------------------------|----------------------------------|
--3-3-3-3-3-3-3-3-3-3-3-3-3-3-3-3-|--2-2-2-2-2-2-2-2-2-2-2-2-2-2-2-2-|


----------------------------------|----------------------------------|
----------------------------------|----------------------------------|
----------------------------------|----------------------------------|
----------------------------------|----------------------------------|
--0-0-0-0-0-0-0-0-0-0-0-0-0-0-0-0-|--2-2-2-2-2-2-2-2-2-2-2-2-2-2-2-2-|
----------------------------------|----------------------------------|

        
----------------------------------|----------------------------------||
----------------------------------|----------------------------------||
----------------------------------|----------------------------------||
----------------------------------|----------------------------------||
--3-3-3-3-3-3-3-3-3-3-3-3-3-3-3-3-|--5-5-5-5-3-3-3-3-2-2-2-2-3-3-3-3-||
----------------------------------|----------------------------------||


***Guitar 2:

----------------------------------|----------------------------------|
----------------------------------|----------------------------------|
----------------------------------|----------------------------------|
----------------------------------|----------------------------------|
--0-0-0-0-0-0-0-0-0-0-0-0-0-0-0-0-|--2-2-2-2-2-2-2-2-2-2-2-2-2-2-2-2-|
----------------------------------|----------------------------------|


----------------------------------|----------------------------------|
----------------------------------|----------------------------------|
----------------------------------|----------------------------------|
----------------------------------|----------------------------------|
--3-3-3-3-3-3-3-3-3-3-3-3-3-3-3-3-|--5-5-5-5-3-3-3-3-2-2-2-2-3-3-3-3-|
----------------------------------|----------------------------------|

 
----------------------------------|----------------------------------|
----------------------------------|----------------------------------|
----------------------------------|----------------------------------|
----------------------------------|----------------------------------|
--0-0-0-0-0-0-0-0-0-0-0-0-0-0-0-0-|--2-2-2-2-2-2-2-2-2-2-2-2-2-2-2-2-|
----------------------------------|----------------------------------|

 
----------------------------------|----------------------------------|
----------------------------------|----------------------------------|
----------------------------------|----------------------------------|
----------------------------------|----------------------------------|
----------------------------------|----------------------------------|
--3-3-3-3-3-3-3-3-3-3-3-3-3-3-3-3-|--2-2-2-2-2-2-2-2-2-2-2-2-2-2-2-2-|


***Guitar 3:

--5-5-5-5-0-0-0-0-5-5-5-5-0-0-0-0-|--7-7-7-7-0-0-0-0-7-7-7-7-0-0-0-0-|
----------------------------------|----------------------------------|
----------------------------------|----------------------------------|
----------------------------------|----------------------------------|
----------------------------------|----------------------------------|
----------------------------------|----------------------------------|


--8-8-8-8-0-0-0-0-8-8-8-8-0-0-0-0-|--10-10-10-10-0-0-0-0-8-8-8-8-7-7-7-7-|
----------------------------------|--------------------------------------|
----------------------------------|--------------------------------------|
----------------------------------|--------------------------------------|
----------------------------------|--------------------------------------|
----------------------------------|--------------------------------------|

 
--5-5-5-5-0-0-0-0-5-5-5-5-0-0-0-0-|--7-7-7-7-0-0-0-0-7-7-7-7-0-0-0-0-|
----------------------------------|----------------------------------|
----------------------------------|----------------------------------|
----------------------------------|----------------------------------|
----------------------------------|----------------------------------|
----------------------------------|----------------------------------|

 
--8-8-8-8-0-0-0-0-8-8-8-8-0-0-0-0-|--10-10-10-10-0-0-0-0-8-8-8-8-7-7-7-7-|
----------------------------------|--------------------------------------|
----------------------------------|--------------------------------------|
----------------------------------|--------------------------------------|
----------------------------------|--------------------------------------|
----------------------------------|--------------------------------------|





/Riff 2/

***Guitar 1:
    
----||--------------------|--------------------|
----||--------------------|--------------------|
----||--------------------|--------------------|
----||--2~----------------|--x~----------------|
----||--0~----------------|--x~----------------|
----||--------------------|--------------------|

              
--------------------|--------------------|--------------------|
--------------------|--------------------|--------------------|
--------------------|--------------------|--------------------|
--5~----------------|--x~----------------|--------------------|
--3~----------------|--x~----------------|--3~----------------|
--------------------|--------------------|--3~----------------|

                        
--------------------|--------------------||
--------------------|--------------------||
--------------------|--------------------||
--------------------|--------------------||
--x~----------------|--2~----------------||
--x~----------------|--2~----------------||



***Guitar 2:
             PM PM PM PM PM PM PM PM    PM PM PM PM PM PM PM PM  
E||-------|--------------------------|--------------------------|
B||-------|--------------------------|--------------------------|
G||-------|--------------------------|--------------------------|
D||-------|--2--2--2--2--2--2--2--2--|--2--2--2--2--2--2--2--2--|
A||-------|--0--0--0--0--0--0--0--0--|--0--0--0--0--0--0--0--0--|
D||-------|--------------------------|--------------------------|


  PM PM PM PM PM PM PM PM    PM PM PM PM PM PM PM PM 
--------------------------|--------------------------|
--------------------------|--------------------------|
--------------------------|--------------------------|
--5--5--5--5--5--5--5--5--|--5--5--5--5--5--5--5--5--|
--3--3--3--3--3--3--3--3--|--3--3--3--3--3--3--3--3--|
--------------------------|--------------------------|


  PM PM PM PM PM PM PM PM    PM PM PM PM PM PM PM PM 
--------------------------|--------------------------|
--------------------------|--------------------------|
--------------------------|--------------------------|
--------------------------|--------------------------|
--3--3--3--3--3--3--3--3--|--3--3--3--3--3--3--3--3--|
--3--3--3--3--3--3--3--3--|--3--3--3--3--3--3--3--3--|


  PM PM PM PM PM PM PM PM           PM PM        PM PM   
--------------------------|----------------------------|
--------------------------|----------------------------|
--------------------------|----------------------------|
--------------------------|----------------------------|
--2--2--2--2--2--2--2--2--|--3s--2--2--2--2s--3--2--2--|
--2--2--2--2--2--2--2--2--|--3s--2--2--2--2s--3--2--2--|


/Riff 3/
         
--------------------------|--------------------------|
--------------------------|--------------12b~--------|
--------------------------|--------------------------|
--------------------------|--------------------------|
--3--2--3--2--3-----3--2--|--3--2--3-----------------|
--3--2--3--2--3-----3--2--|--3--2--3-----------------|

        
--------------------------|--------------------------|
--------------------------|--------------12b~--------|
--------------------------|--------------------------|
--------------------------|--------------------------|
--3--2--3--2--3-----3--2--|--3--2--3-----------------|
--3--2--3--2--3-----3--2--|--3--2--3-----------------|


Тональность:

Это должно быть в ТОП-листе! - Топ-лист композиций



Назад
Рекомендуем посмотреть другие песни исполнителя «Северный Флот»:

  • Комменты Fb ()
  • Комменты ВК



Добавить в Избранное Браузера
Сохранить здесь Очистить


x

0


+
-

+
-

-

Авторизация





Зарегистрироваться

M

Дата и время

  • 10:44:35
     

Социальные ссылки


Наши приложения

  • Muzbank App Play Market
  • Muzbank Amazon App