MUZBANK


МУЗЫКАЛЬНО-ИНФОРМАЦИОННЫЙ БАНК





ССеверный Флот • Харон (аккорды и текст - chords & lyrics)


2885

Print

Видео «Харон (Северный Флот)»

Видео клипы к песне подбираются автоматически сайтом youtube. Возможны некоторые несоответствия клипов песне.

↑ Спрятать рекламу ↑





*Гитарный строй: Drop D (опустить 6-ю струну на тон ниже)

Dm
Неторопливо течёт вода.
Издалёка идут сюда,
     Bb
Совсем не оставив в траве следа,
F            C           Dm
Люди приходят ко мне.
И монету одну несут,
Оплатить мой нелегкий труд.
    Bb
И я не вершу над ними суд,
F              C         Am  
Просто везу при луне
      Dm
На лодке темной
Am          Dm              Am
В серый одет нескромный плащ
     Bb (Hb)
Не жалуйся, не плачь.

Стенания бесполезны
На краю последней бездны.
Мне неведомо, кто я есть,
Знаю только зачем я здесь.
Вода за кормою мне шепчет песнь,
Слышу я только её.
Никому никогда не внять,
Одиночества не понять
Навек обреченного здесь стоять.
Люди грустят о своём...
Везти из мира прочь,
Видеть вокруг одну лишь ночь
Мое проклятье
Даже если б я хотел помочь,
Я должен помнить,
Что Мое ремесло -
Лодка и весло И молчанье 
Будет на мольбы ответом.
Я ем свой яд И глаза горят на прощанье 
Абсолютно черным светом.
Лодка здесь, спасенья нету.
Вас везти из мира прочь,
Видеть вокруг одну лишь ночь
Мое проклятье
Даже если б я хотел помочь,
Я должен помнить,
Что Мое ремесло -
Лодка и весло и молчанье 
Будет на мольбы ответом.
Я ем свой яд и глаза горят на прощанье 
Абсолютно черным светом.

Am C F D



/Табулатура:/ 

[Acoustic Guitar:]
Verse 1 (x3):
E||--------------------------|--------------------------|
B||--------------------------|--------------------------|
G||--------------0-----------|--------------0-----------|
D||--------7--------7-----7--|--------3--------3-----3--|
A||-----5-----5--------5-----|-----5-----5--------5-----|
D||--0-----------------------|--0-----------------------|


Verse 2:
--------------------------|-------------------------|
--------------------------|-------------------------|
--------0-----------------|-----0-------------0-----|
-----3-----3--2-----0--2--|--3-----3--2----2-----2--|
--1--------------1--------|-------------------------|
--------------------------|-------------------------|
 
-----------------------------|-----------------------------|
-----------------------------|-----------------------------|
-----------------------------|---------0------------(0)----|
---------5--3----(3)--(5)----|------3-----2----(2)---------|
------3----------------------|--/3-------------------------|
--/3-------------------------|-----------------------------|


Verse 1 --//--


Verse 3:  

--------------------------|-------------------------|
--------------------------|-------------------------|
--------0-----------------|-----0-------------0-----|
-----3-----3--2-----0--2--|--3-----3--2----2-----2--|
--1--------------1--------|-------------------------|
--------------------------|-------------------------|


----------------------------|----------------------------|
----------------------------|----------------------------|
----------------------------|---------0------------(0)---|
---------5--3----(3)--(5)---|------3-----2----(2)--------|
------3---------------------|--/3------------------------|
--/3------------------------|----------------------------|


Verse 4 (x2):
--------------------------|-----------------------------|
--------------------------|-----------------------------|
--------5-----5--------5--|--------10-----10--9--7------|
-----2-----2-----2--------|-----7------7------------10--|
--0-----------------0-----|--0--------------------------|
--------------------------|-----------------------------|

Verse 5:
--------------------------|--------------------------|
--------------------------|--------1-----1--------1--|
--------5-----5--------5--|--------------------------|
-----2-----2-----2--------|-----2-----2-----2--------|
--0-----------------0-----|--1-----------------1-----|
--------------------------|--------------------------|


--------------------------|----------------------------|
--------------------------|----------------------------|
--------7-----7-----------|--------7-----7-------------|
-----------------7-----7--|-----------------7--(5)--7--|
-----5-----5--------5-----|-----5-----5----------------|
--5-----------------------|--5-------------------------|

              
--------------------------|--------------------------|-----------|
--------------------------|--------------------------|-----------|
--------7-----7-----------|--------7-----7-----------|-----------|
-----------------7-----7--|-----------------7-----7--|--x--------|
-----5-----5--------5-----|-----5-----5--------5--5--|--x--------|
--5-----------------------|--5--------------------5--|--x--------|






[Electro-Guitar Rhythm:]

  PM PM PM PM    
------------------------|-------------------------|-------------------------|
------------------------|----------1-----3--1-----|-------------------------|
--4--4--4--4--4----4----|-------------------------|-------------------------|
--4--4--4--4--4----4----|--2----2--2--2--2--2--2--|--2----2--2--2--2--2--2--|
--2--2--2--2--2----2----|--2----2--2--2--2--2--2--|--2----2--2--2--2--2--2--|
------------------------|-------------------------|-------------------------|

 
-------------------------|-------------------------|-------------------------|
-------------------------|-------------------------|-------------------------|
-------------------------|-------------------------|--5----5--5--5--5--5--5--|
--5----5--5--5--5--5--5--|--5----5--5--5--5--5--5--|--3----3--3--3--3--3--3--|
--3----3--3--3--3--3--3--|--3----3--3--3--3--3--3--|--3----3--3--3--3--3--3--|
--3----3--3--3--3--3--3--|--3----3--3--3--3--3--3--|--3----3--3--3--3--3--3--|

 
-------------------------|-------------------------|-------------------------|
-------------------------|-------------------------|-------------------------|
--5----5--5--5--5--5--5--|-------------------------|-------------------------|
--3----3--3--3--3--3--3--|--0----0--0--0--0--0--0--|--0----0--7--7--7--7--0--|
--3----3--3--3--3--3--3--|--0----0--0--0--0--0--0--|--0----0--0--5--5--5--0--|
--3----3--3--3--3--3--3--|--0----0--0--0--0--0--0--|--0----0--------------0--|

 
-------------------------|-------------------------|-------------------------|
-------1-----3--0--1--0--|-------------------------|-------------------------|
-------------------------|-------------------------|-------------------------|
--2----2--2--2--2--2--2--|--2----2--2--2--2--2--2--|--5----5--5--5--5--5--5--|
--2----2--2--2--2--2--2--|--2----2--2--2--2--2--2--|--3----3--3--3--3--3--3--|
-------------------------|-------------------------|--3----3--3--3--3--3--3--|

 
-------------------------|-------------------------|-------------------------|
-------------------------|-------------------------|-------------------------|
-------------------------|--5----5--5--5--5--5--5--|--5----5--5--5--5--5--5--|
--5----5--5--5--5--5--5--|--3----3--3--3--3--3--3--|--3----3--3--3--3--3--3--|
--3----3--3--3--3--3--3--|--3----3--3--3--3--3--3--|--3----3--3--3--3--3--3--|
--3----3--3--3--3--3--3--|--3----3--3--3--3--3--3--|--3----3--3--3--3--3--3--|


-------------------------|-------------------------||
-------------------------|-------------------------||
-------------------------|-------------------------||
--0----0--0--0--0--0--0--|--0----0--7--7--7--7--0--||
--0----0--0--0--0--0--0--|--0----0--0--5--5--5--0--||
--0----0--0--0--0--0--0--|--0----0--------------0--||


Тональность:

Это должно быть в ТОП-листе! - Топ-лист композиций



Назад
Рекомендуем посмотреть другие песни исполнителя «Северный Флот»:

  • Комменты Fb ()
  • Комменты ВК



Добавить в Избранное Браузера
Сохранить здесь Очистить


x

0


+
-

+
-

-

Авторизация





Зарегистрироваться

M

Дата и время

  • 08:40:34
     

Социальные ссылки


Наши приложения

  • Muzbank App Play Market
  • Muzbank Amazon App