MUZBANK



A MOST COMPLETE BANK OF MUSIC INFORMATION

МУЗЫКАЛЬНО-ИНФОРМАЦИОННЫЙ БАНК







    SShadows • Man Of Mystery (аккорды и текст - chords & lyrics)


    1060

    Print

    Видео «Man Of Mystery (Shadows)»

    Видео клипы к песне подбираются автоматически сайтом youtube. Возможны некоторые несоответствия клипов песне.

    ↑ Спрятать рекламу ↑



    Download


     
    
    
    Author/Artist: Carr/The Shadows
    Title: Man Of Mystery
    Transcribed by: John T
    Email: rjtaylor@bold.net.au-12----------------------12--------------------|-------1--0--------1--0--1----
    -15b(17)-----------------15b(17)---------------|----1-----------0-------------
    -----------------------------------------------|-2-----------1----------------
    -----------------------------------------------|------------------------------
    -----------------------------------------------|------------------------------
    ---------0x--0x--0x--0x----------0x--0x--0x--0x|------------------------------
                                                                                  
    
    -0--------1--0--------0-----0-----------0-------------------------------------
    -------------------------3-----3-----------3--------3--1--3--1--1--0--1--0----
    ----0--3-----------2-----------------2-----------2----------------------------
    ----------------4-----------------3-----------2-------------------------------
    ------------------------------------------------------------------------------
    ------------------------------------------------------------------------------
    
                                       
    -----------------------1--0-------1--0--1--0------1--0-----0---0-------0------
    -1--0--1--0--1--0----1---------0-----------------------------3---3-------3----
    -------------------2--------1----------------0--3--------2-----------2--------
    -------------------------------------------------------4-----------3-------2--
    ------------------------------------------------------------------------------
    ------------------------------------------------------------------------------
                                                                                  
                                    w/bar bend
    ----------------------------------------------------7--5--------7--5--7--5----
    ----3--1--3--1--1--0-----0--1--0--1(0)(1)--------6-----------5----------------
    -2--------------------3-----------2(1)(2)-----7-----------5-------------------
    ----------------------------------2(1)(2)-------------------------------------
    ------------------------------------------------------------------------------
    ------------------------------------------------------------------------------
    
    
    ------------------------------------------------------------------------------
    ------------------------------------------------3--3-----3--3-----3----1--1---
    ---------------------------------------------------2--2--2--2--2----2-----2---
    -6--5--4--3--------------0x--1x--1x--0x------0--------------------------------
    -------------0x--0x--3x------------------3x-----------------------------------
    ------------------------------------------------------------------------------
                                   w/bar bend                                     
    
    -------------------------------12(11)(12)|-------1--0----------1--0--1--0-----
    ----1-----1--------4--4------------------|----1-------------0-----------------
    -------2--------4--4--4--4--4---9-(8)-(9)|-2-------------1-----------------0--
    -2-----------0--4------------------------|------------------------------------
    -----------------------------------------|------------------------------------
    -----------------------------------------|------------------------------------
                                                                                  
    
    -----1--0--------0-----0-----------0------------------------------------------
    --------------------3-----3-----------3--------3--1--3--1--1--0-----0--1--0---
    --3-----------2-----------------2-----------2--------------------3------------
    -----------4-----------------3-----------2------------------------------------
    ------------------------------------------------------------------------------
    ------------------------------------------------------------------------------
     w/bar bend  w/bar vibrato                                         w/bar vib  
    
    ------------|-5v-------0v-|---------------5-----------------------|-5v----0v--
    -1(0)(1)----|-6v-------1v-|------------8-----5--------------------|-6v----1v--
    -2(1)(2)----|-7v-------2v-|---------------------7p5-----7--5-----5|-7v----2v--
    -2(1)(2)----|----------2v-|-6--5--42----------------7--------7---|-------2v--
    ------------|-------------|---------------------------------------|-----------
    ------------|-------------|---------------------------------------|-----------
                                                                                  
    
    ----7-----------------------------------------------------|-----12------12----
    -------7-----7--------------------------------------------|-15------15--------
    -4--------4-----------------------------------------------|-------------------
    ----------------------------------------------------------|-------------------
    ----------------6/7--------6h7-----6h7-----6h7-----6h7----|-------------------
    ---------------------0--0-------0-------0-------0-------0-|-------------------
                                                           
                                                             #repick
    -----12-------------------12-----------12-----------12---------------------12-
    -15------15--13--15b(17)------15b(17)------15b(17)-----(#17)-(#17)r15--13--15-
    ------------------------------------------------------------------------------
    ------------------------------------------------------------------------------
    ------------------------------------------------------------------------------
    ------------------------------------------------------------------------------
                                            
                                             #repick
    -----12--------------12------12--12--12--------------12-----------------------
    -15-----13------15---13------15b(17)----(#17)r(15)---13---------------12------
    -------------14----------14-------------------------------14--12------12------
    ------------------------------------------------------------------14----------
    ------------------------------------------------------------------------------
    ------------------------------------------------------------------------------
                                                                                  
    
    ------------------------------------------------------------------------------
    -14p12------14--14p12------14--14p12------14--14p12------14--14p12------14----
    -14p12--12------14p12--12------14p12--12------14p12--12------14p12--12--------
    ------------------------------------------------------------------------------
    ------------------------------------------------------------------------------
    ------------------------------------------------------------------------------
                                                                                  
    
    --------------------------------------------------------------------12--------
    -14p12------14--14p12------14--14p12----------12------14---12-------12--------
    -14p12--12------14p12--12------14p12--12------12------14---12--12v------------
    ------------------------------------------14------14-----------14v------------
    ------------------------------------------------------------------------------
    ------------------------------------------------------------------------------
                                                                                  
    
    ----------12|-------1--0--------1--0--1--0--------1--0--------0-----0---------
    -15b(17)----|----1-----------0-----------------------------------3-----3------
    ------------|-2-----------1-----------------0--3-----------2------------------
    ------------|-------------------------------------------4---------------------
    ------------|-----------------------------------------------------------------
    ------------|-----------------------------------------------------------------
                                                                                  
    
    -------0---------------------------------------------------------1--0---------
    ----------3--------3--1--3--1--1--0-----0--1--0---------------1-----------0---
    ----2-----------2--------------------3-----------2---------2-----------1------
    -3-----------2-----------------------------------2--2--2----------------------
    ----------------------------------------------------2--2----------------------
    ------------------------------------------------------------------------------
     
    
    -1--0--1--0--------1--0--------0-----0-----------0---------------------------
    ----------------------------------3-----3-----------3--------3--1--3--1--1---
    -------------0--3-----------2-----------------2-----------2------------------
    -------------------------4-----------------3-----------2---------------------
    -----------------------------------------------------------------------------
    -----------------------------------------------------------------------------
                                                                                  
                w/bar bend
    ---------------------------12------------------------------------------------
    -0-----0--1---1(0)---------15b(17)-------------------------------------------
    ----3---------2(1)-----------------------------------------------------------
    --------------2(1)-----------------------------------------------------------
    -----------------------------------------------------------------------------
    -----------------------------------------------------------------------------
     

    Тональность:

    Это должно быть в ТОП-листе! - Топ-лист композиций



    Назад
    Рекомендуем посмотреть другие песни исполнителя «Shadows»:

    • Комменты Fb ()
    • Комменты ВК



    Добавить в Избранное Браузера
    Сохранить здесь Очистить


    x

    0


    +
    -

    +
    -

    -

    Авторизация





    Зарегистрироваться

    M

    Дата и время

    • 17:27:12
       

    Социальные ссылки


    Наши приложения

    • Muzbank App Play Market
    • Muzbank Amazon App