MUZBANK



A MOST COMPLETE BANK OF MUSIC INFORMATION

МУЗЫКАЛЬНО-ИНФОРМАЦИОННЫЙ БАНК







    SShakur Tupac • To Live And Die In La (аккорды и текст - chords & lyrics)


    325

    Print

    Видео «To Live And Die In La (Shakur Tupac)»

    Видео клипы к песне подбираются автоматически сайтом youtube. Возможны некоторые несоответствия клипов песне.

    ↑ Спрятать рекламу ↑





     
    
    
    To live and die in L.A.
    
    
    Intro:
      Fmaj7            Em7   Am7
    e|0---------------|0-----0---------|
    B|1---------------|3-----1-----1-3-|
    G|2---------------|0-----0---------| >repeat twice
    D|3---------------|2-----2---------|
    A|x---------------|2-----0---------|
    E|x---------------|0-----x---------|
    
    G|----------------|----------------|
    D|0---------------|------3-3-------|
    A|----------------|3---------------|
    E|----------------|----------------| 
                                          >repeat once
    G|----------------|----------------| /
    D|0---------------|------3-3-------|/
    A|----------------|3-----------2-3-|
    E|----------------|----------------|
    
    Verse
      Fmaj7            Em7   Am7
    e|0-0-0-0-0-0-0-0-|0-0-0-0-0-0-0-0-|
    B|1-1-1-1-1-1-1-1-|3-3-3-1-1-1-1-1-| 
    G|2-2-2-2-2-2-2-2-|0-0-0-0-0-0-0-0-|  iiiiiiii iiii iiiiiiii iiii 
    D|3-3-3-3-3-3-3-3-|2-2-2-2-2-2-2-2-|  /iiiiiiiii iiiiiiii
    A|x-x-x-x-x-x-x-x-|2-2-2-0-0-0-0-0-| /
    E|x-x-x-x-x-x-x-x-|0-0-0-x-x-x-x-x-|/
    
    G|----------------|----------------|
    D|0-----0-0-020---|----2-2-3-3-----|
    A|-----0----------|3-3---------3-3-|
    E|----------------|----------------| 
                                          >IIII II IIII II IIIIi IIII
    G|----------------|----------------| /
    D|0-----0-0-020---|------3-3-3-----|/
    A|-----0----------|3-3---------2-3-|
    E|----------------|----------------|
    
    tempo=moderate funk=87
    tabbed by Konrad Kosieniak-Madejski
     

    Тональность:

    Это должно быть в ТОП-листе! - Топ-лист композиций



    Назад
    Рекомендуем посмотреть другие песни исполнителя «Shakur Tupac»:

    • Комменты Fb ()
    • Комменты ВК



    Добавить в Избранное Браузера
    Сохранить здесь Очистить


    x

    0


    +
    -

    +
    -

    -

    Авторизация





    Зарегистрироваться

    M

    Дата и время

    • 15:23:39
       

    Социальные ссылки


    Наши приложения

    • Muzbank App Play Market
    • Muzbank Amazon App