MUZBANK


МУЗЫКАЛЬНО-ИНФОРМАЦИОННЫЙ БАНК





ШШевчук Юрий • Метель (аккорды и текст - chords & lyrics)


1093

Print

Видео «Метель (Шевчук Юрий)»

Видео клипы к песне подбираются автоматически сайтом youtube. Возможны некоторые несоответствия клипов песне.

↑ Спрятать рекламу ↑






Вступление(2 раза): 
                   
   Em          C             G             D
e|------0==--------------------------------------0==-----
H|------0==---------1------------3--------------3=--3----
G|---0===---------0------------0---------------2=-----2--
D----------/5-4----------------0====---------
A|---------0-2-3==--------------------0-2-3--------------
E|-0=====--------------------3====--3--------------------


   Em          C             G            D
e|------0==----------------------------------------------|---
H|------0==---------1--------0==--0----------------------|---
G|---0===---------0-----------------0-----2h4-2==--------|---
D----------/5-4-----0----0----0====--0-------|--- и сначала 
A|---------0-2-3==---------------------------------0-----|---
E|-0=====--------------------3====-------------------3p2-|-0-


Em    C        G  D
 Коронована луной
Em      C         G D 
 Как начало высока-а-а-а
Em      C           G  D
 Как победа не со мной
Em      C           G  D
 Как надежда не легка-а-а-а


Em     C            G  D
 За окном стеной мете-е-е-ель

Em         C          G  D
 Жизнь по горло занесло

Em     C            G   D
 Сорвало финал с пете-е-е-ель

Em     C          G   D
 Да поела все тепло
  

 Припев: 

Em          C           G            D        Em 
 Играй как можешь сыграй, закрой глаза и вернись
           C        G         D        Em
 Не пропади,но растай, да колее поклонись 
        C       G            D        Em
 Мое окно отогрей, пусти по полю весной
         C          G           D          Em 
 Не доживи, но созрей и будешь вечно со мной,
           C          G            D          Em  C         G D
 И будешь вечно со мной, и будешь вечно со мно-о-о-ой е-е-е-е-е
      Em   C  G  D
 Со мно-о-о-о-о-о-ой


 
Ищут землю фонари,
К небу тянется свеча-а-а-а,
На снегу следы зари,
Крылья павшего луча.

Что же вьюга налива-а-а-ай,
Выпьем время натощак.
Я спою ты в такт прола-а-а-ай
О затерянных веща-ах.


 Припев.
----------------------------------
 Дальше идет проигрыш(2 раза), под который потом идет куплет(4 раза)
  и соло(4 раза пребором   4 раза боем по аккордам этого проигрыша),
  {в оригинале играет синтезатор аккордами, что-то типа фона}:
----------------------------------
   E              C              G              D

e|-4=-----4=-4----0=-----0=-0----3=-----3=-3----2=-----2=-2---
H|-5=-----5=-5----1=-----1=-1----0=-----0=-0----3=-----3=-3---
G|-----4=---4---------0=---0---------0=---0---------2=---2----
D-----------------------------------0=======------
A-----3-------------------------------------------
E|-0=========--------------------3======----------------------

Осторожно не спеша
С белым ветром на груди
Где в умерший блек ладьи
Ждет озябшая душа.


 Соло (на записи соло играют на двух гитарах, но хватит и одной:-)):

   E      C     G       D     E          C    G          D 
e---5-4-3=========----------------5-4-3===========
H|-5-4-3========--------------5-4-3==========-----------------
G------------------------7-6-5===========4-3-2===-
D-------------------------------------------------
A-------------------------------------------------
E-------------------------------------------------
   E          C      G          D 
e-------------------------
H|-7-6-5=========----5-4-3=======-----
G------------------------- играется 2 раза
D|--------7-6-5====-------------------
A---------------7-6-5===--
E-------------------------
   E     C    G     D    E     C    G         D
e|-7-6-5====--9-8-7====--7-6-5====--12-11-10======
H-------------------------------------
G-------------------------------------
D-------------------------------------
A-------------------------------------
E-------------------------------------
   E        C  G        D  E        C   G          D    
e|-15-14-13===-17-16-15===-19-18-17===--5-4-3==--------
H----------------------------------4-3-2==-
G------------------------------------------
D------------------------------------------
A------------------------------------------
E------------------------------------------

    Припев.
 

Тональность:

Это должно быть в ТОП-листе! - Топ-лист композиций



Назад
Рекомендуем посмотреть другие песни исполнителя «Шевчук Юрий»:

  • Комменты Fb ()
  • Комменты ВК



Добавить в Избранное Браузера
Сохранить здесь Очистить


x

0


+
-

+
-

-

Авторизация





Зарегистрироваться

M

Дата и время

  • 14:31:40
     

Социальные ссылки


Наши приложения

  • Muzbank App Play Market
  • Muzbank Amazon App