MUZBANK



A Most Complete Bank Of Music Information

МУЗЫКАЛЬНО-ИНФОРМАЦИОННЫЙ БАНК








    SSick Of It All • Let Go (аккорды и текст - chords & lyrics)


    188

    Print

    Видео «Let Go (Sick Of It All)»

    Видео клипы к песне подбираются автоматически сайтом youtube. Возможны некоторые несоответствия клипов песне.

    ↑ Спрятать рекламу ↑






     
    
    
    ------------------------------------------------------------------------------- 
                             LET GO - Sick Of It All 
    ------------------------------------------------------------------------------- 
    
    By: Cody B. elcujo_is_a@hardcorefreak.com 
    
    Verse Part 1 
    e|-------------------------------| 
    B|-------------------------------| 
    G|-12-9-9-9-12-9-9-9-------------| 
    D|-12-9-9-9-12-9-9-9-------------| 
    A|-10-7-7-7-10-7-7-7-11-11-11-11-| 
    E|-------------------9--9--9--9--| 
    
    Verse Part 2 
    e|-----------------| 
    B|-----------------| 
    G|-----------------| 
    D|-5-5-5-5-9-9-9-9-| 
    A|-5-5-5-5-9-9-9-9-| 
    E|-3-3-3-3-7-7-7-7-| 
    
    Interlude 
    e|---| 
    B|---| 
    G|---| x4 
    D|-2-| 
    A|-2-| 
    E|-0-| 
    
    Other Part After 4th time 
    e|-------------|   |-------|
    B|-------------|   |-------|
    G|-------------| + |-------|
    D|-2-5-4-5-6-7-|   |-9-9-9-|
    A|-2-5-4-5-6-7-|   |-9-9-9-| 
    E|-0-3-2-3-4-5-|   |-7-7-7-|
    
    Outro 
    e|-----------------------------------------------|
    B|-----------------------------------------------|
    G|-------------------------7-7-7-7-9-9-9-9-------|
    D|-2-2-2-2-5-5-5-5-9-9-9-9-7-7-7-7-9-9-9-9-5-5-2-|
    A|-2-2-2-2-5-5-5-5-9-9-9-9-5-5-5-5-7-7-7-7-5-5-2-|
    E|-0-0-0-0-3-3-3-3-7-7-7-7-----------------3-3-0-|
    
    -------------------------------------------------------------------------------
     

    Тональность:

    Нашли ошибку?



    Назад
    Рекомендуем посмотреть другие песни исполнителя «Sick Of It All»:

    • Комменты Fb ()
    • Комменты ВК



    Добавить в Избранное Браузера
    Сохранить здесь Очистить


    x

    0


    +
    -

    +
    -

    -

    Авторизация





    Зарегистрироваться

    M

    Дата и время

    • 11:30:54
       

    Социальные ссылки


    Наши приложения

    • Muzbank App Play Market
    • Muzbank Amazon App