MUZBANK



A MOST COMPLETE BANK OF MUSIC INFORMATION

МУЗЫКАЛЬНО-ИНФОРМАЦИОННЫЙ БАНК







    SSick Of It All • Scratch The Surface (аккорды и текст - chords & lyrics)


    353

    Print

    Видео «Scratch The Surface (Sick Of It All)»

    Видео клипы к песне подбираются автоматически сайтом youtube. Возможны некоторые несоответствия клипов песне.

    ↑ Спрятать рекламу ↑





     
    
    
    Sick Of It All
    Scratch The Surface
    Standard E Tuning
    Tabbed by Jack Shepherd
    
    Intro x4
    Chorus x4
    Verse x4
    Chorus x2
    Verse x4
    Pre-Chorus
    Chorus x4
    Verse x4
    Chorus x2
    Verse x4
    Pre-Chorus
    Bridge (Bass Only) x2
    Bridge x4
    Ending x4
    
    Intro
    E---------------------
    B---------------------
    G---------------------
    D-----------------2(2)
    A-----------------2(2)
    E-00000000000000000(0) |0|
    
    Verse
    E-------------------------
    B-------------------------
    G-------------------------
    D-----------5-5-------5-5-
    A-----------5-5-------5-5-
    E-0-000-0-0-3-3-000-0-3-3-
    
    Pre-Chorus
    E------------------
    B------------------
    G------------------
    D--2--5--5--4--4/5-
    A--2--5—-5--4--4/5
    E-00-03-03-02-02/3- Play 3 times then this: 
    
    E-------------------------------------------------
    B-------------------------------------------------
    G-------------------------------------------------
    D--2--5--5--4--444444444444444444444444---4-4-4-4-
    A--2--5—-5--4--444444444444444444444444---4-4-4-4-
    E-00-03-03-02-0222222222222222222222222-0-2-2-2-2-
    
    Bridge (Bass)
    E-5404565-0-5404565-
    
    Bridge
    E----------------------
    B----------------------
    G----------------------
    D-76-6/7/87-22222222-
    A-76-6/7/87-22222222-
    E-5404/5/65-00000000-
                     /
               Last time through
               play 5 notes
    
    Ending
    E-----------------------------
    B-----------------------------
    G-----------------------------
    D-76---6/76-2(2)------------
    A-76---6/76-2(2) 
    E-54-0-4/54-0(0)
     

    Тональность:

    Это должно быть в ТОП-листе! - Топ-лист композиций



    Назад
    Рекомендуем посмотреть другие песни исполнителя «Sick Of It All»:

    • Комменты Fb ()
    • Комменты ВК



    Добавить в Избранное Браузера
    Сохранить здесь Очистить


    x

    0


    +
    -

    +
    -

    -

    Авторизация





    Зарегистрироваться

    M

    Дата и время

    • 22:43:46
       

    Социальные ссылки


    Наши приложения

    • Muzbank App Play Market
    • Muzbank Amazon App