MUZBANK



A MOST COMPLETE BANK OF MUSIC INFORMATION

МУЗЫКАЛЬНО-ИНФОРМАЦИОННЫЙ БАНК







    SSick Of It All • Stood For Nothing (аккорды и текст - chords & lyrics)


    346

    Print

    Видео «Stood For Nothing (Sick Of It All)»

    Видео клипы к песне подбираются автоматически сайтом youtube. Возможны некоторые несоответствия клипов песне.

    ↑ Спрятать рекламу ↑





     
    
    
    Sick Of It All
    Stood For Nothing
    Terror Firmer Soundtrack
    Tabbed by James Low whatisaturnip@yahoo.co.uk
    
    Tuning- EADGBE
    
    STOOD FOR NOTHING, STOOD FOR NOTHING
    
    ---------------------------------------------|
    ---------------------------------------------|
    66666666666666666666666666666666666666-------|
    66666666666666666666666666666666666666-------|
    44444444444444444444444444444444444444-------|
    ---------------------------------------------|
    
    ---------------------------------------------|
    ---------------------------------------------|
    ---9-------9-------6666666666666666666666666-|
    ---9---8---9---8---6666666666666666666666666-|
    ---7---8---7---8---4444444444444444444444444-|
    -------6-------6-----------------------------|
    
    ---------------------------------------------|
    ---------------------------------------------|
    -------7---9---------------7---9-------------|
    ---9---7---9---7---8---9---7---9---7---x-x-x-|
    ---9---5---7---7---8---9---5---7---7---x-x-x-|
    ---7-----------5---6---7-----------5---x-x-x-|
                                           harm
    
    ---------------------------------------------|
    ---------------------------------------------|
    --6666666666666666666666---6--6--6--6--------|
    --6666666666666666666666---6--6--6--6--------|
    --4444444444444444444444---4--4--4--4--------|
    ---------------------------------------------|
    
    Enjoy!
     

    Тональность:

    Это должно быть в ТОП-листе! - Топ-лист композиций



    Назад
    Рекомендуем посмотреть другие песни исполнителя «Sick Of It All»:

    • Комменты Fb ()
    • Комменты ВК



    Добавить в Избранное Браузера
    Сохранить здесь Очистить


    x

    0


    +
    -

    +
    -

    -

    Авторизация





    Зарегистрироваться

    M

    Дата и время

    • 13:18:21
       

    Социальные ссылки


    Наши приложения

    • Muzbank App Play Market
    • Muzbank Amazon App