MUZBANK



A MOST COMPLETE BANK OF MUSIC INFORMATION

МУЗЫКАЛЬНО-ИНФОРМАЦИОННЫЙ БАНК







    SSick Of It All • The Blood And The Sweat (аккорды и текст - chords & lyrics)


    190

    Print

    Видео «The Blood And The Sweat (Sick Of It All)»

    Видео клипы к песне подбираются автоматически сайтом youtube. Возможны некоторые несоответствия клипов песне.

    ↑ Спрятать рекламу ↑






     
    
    
    ------------------------------------------------------------------------------- 
                     THE BLOOD AND THE SWEAT - Sick Of It All 
    ------------------------------------------------------------------------------- 
    
    By: Punk Rock Bob ( Mickey_Mouse_Is_Dead@punkhardcore.net ) 
    
    PART 1 
    G|---------------------------------------------------------------------------| 
    D|---------------------------------------------------------------------------| 
    A|--------------3------3------3----------------------------------------------| 
    E|--222-222-222----222----222------------------------------------------------| 
    
    PART 2 
    G|---------------------------------------------------------------------------| 
    D|---------------------------------------------------------------------------| 
    A|--------------------3-2-33--------------------5-3-2------------------------| 
    E|--22-33-22-33-22-33---------22-33-22-33-22-33-------5----------------------| 
    
    PART 3 
    G|---------------------------------------------------------------------------| 
    D|---------------------------------------------------------------------------| 
    A|--22222222-33333333---------------------22222222-33333333-55555555-5-3-2---| 
    E|--------------------3333-2222-3333-2222----------------------------------5-| 
    
    SONG STRUCTURE: 
    PART 1 
    PART 2 
    PART 3 
    PART 1 
    PART 3 
    PART 2 
    PART 1 
    
    -------------------------------------------------------------------------------
     

    Тональность:

    Это должно быть в ТОП-листе! - Топ-лист композиций



    Назад
    Рекомендуем посмотреть другие песни исполнителя «Sick Of It All»:

    • Комменты Fb ()
    • Комменты ВК



    Добавить в Избранное Браузера
    Сохранить здесь Очистить


    x

    0


    +
    -

    +
    -

    -

    Авторизация





    Зарегистрироваться

    M

    Дата и время

    • 07:23:39
       

    Социальные ссылки


    Наши приложения

    • Muzbank App Play Market
    • Muzbank Amazon App