MUZBANK



A MOST COMPLETE BANK OF MUSIC INFORMATION

МУЗЫКАЛЬНО-ИНФОРМАЦИОННЫЙ БАНК







    SSick Of It All • US vs. Them (аккорды и текст - chords & lyrics)


    187

    Print

    Видео «US vs. Them (Sick Of It All)»

    Видео клипы к песне подбираются автоматически сайтом youtube. Возможны некоторые несоответствия клипов песне.

    ↑ Спрятать рекламу ↑



    Download


     
    
    
    A                                            
    E---------------------------------
    H|-----1010  10 10  10101010 10 10  10101010-|
    G|-----9- 9  -9--9 -9-9- 9-9--9--9- 9-9-9-9---|
    D|-----7 -7  -7--7--7-7--7-7 -7 -7 -7-7-7-7--| 
    A---------------------------------|
    E---------------------------------|
               a-a                                            
    
          F#                                
    E----------------------
    H|7-7-7-7-7-7-7-7-7-7-7-7-7-7
    G|6-6-6-6-6-6-6-6-6-6-6-6-6-6--
    D|4-4-4-4-4-4-4-4-4-4-4-4-4-4-- 
    A------------------------
    E-------------------------
              a-a 
    F#                                
    E-----------------------------------------------------------
    H---8-8-8-8-8-8-8-8-8-8-8-8-8-8-8-8-8-8-8-8-8-8-8-8-8-8-8-8
    G- -7-7-7-7-7-7-7-7-7-7-7-7-7-7-7-7-7-7-7-7-7-7-7-7-7-7-7-7
    D|  5-5-5-5-5-5-5-5-5-5-5-5-5-5-5-5-5-5-5-5-5-5-5-5-5-5-5-5 
    A------------------------------------------------------
    E--------------------------------------------------------------
       a-a                                      hi!   hi!    hi! Х 3р    
                                      4 -й раз (One! Two! Tree! Four!) 
    
    
    B              D#       Gm     E
    All roads lead the same direction
    we all see eye to eye
    wonґt stand for a bad connection
    we came to keep things tight
    prove this, prove that
    proving is nothing
    letґs all just be ourselves
    focused with the right aggression
    
    A         F#      Gm
    turn to each other for help
    people merge on state of mind from all
    different walks of life
    donґt need any more stupid division
    donґt need to feel uptight
    Gm
    BROTHER – 
    D#              C
    Iґll always look out for you
    Gm           A#
    if I feel it back
    A#
    SISTER – 
    weґll brave the outside world
    off the beaten track
    
    A#                D#    C    
    WHEN ITґS US VERSUS THEM
    Gm                          A#     
    YOU CAN ALWAYS COUNT ON ME
    WHEN ITґS US VERSUS THEM
    ITґS A GLOBAL UNITY
    
    open the extended family
    the family is growing fast
    friendship will transcend the borders
    the world is shrinking fast
    
    cities merge on state of mind
    thereґs nothing wrong with that
    donґt need any more stupid division
    donґt fall for their trap
    
    BROTHER - Iґll always look out for you
    If I feel it back
    SISTER - weґll brave the outside world
    off the beaten track
     

    Тональность:

    Это должно быть в ТОП-листе! - Топ-лист композиций



    Назад
    Рекомендуем посмотреть другие песни исполнителя «Sick Of It All»:

    • Комменты Fb ()
    • Комменты ВК



    Добавить в Избранное Браузера
    Сохранить здесь Очистить


    x

    0


    +
    -

    +
    -

    -

    Авторизация





    Зарегистрироваться

    M

    Дата и время

    • 17:02:15
       

    Социальные ссылки


    Наши приложения

    • Muzbank App Play Market
    • Muzbank Amazon App