MUZBANK



A MOST COMPLETE BANK OF MUSIC INFORMATION

МУЗЫКАЛЬНО-ИНФОРМАЦИОННЫЙ БАНК







    SSimple Plan • Id Do Anything (ver 8) (аккорды и текст - chords & lyrics)


    310

    Print

    Видео «Id Do Anything (ver 8) (Simple Plan)»

    Видео клипы к песне подбираются автоматически сайтом youtube. Возможны некоторые несоответствия клипов песне.

    ↑ Спрятать рекламу ↑



    Download


     
    
    
    Simple Plan – I’d do anything
    
    This is one of the best punk songs I’ve herd so here are the tabs, this ones are
    pretty easy to read and figure out, plus it sounds in a 98.2% like the song from
    the record.
    
    IMPORTANT ADVICE:
    The guitars and bass are half-step down so it is like: eb, Bb, Gb, Db, Ab, Eb
    It is not so hard, so if you cant play this, better leave that thing with strings
    and start practicing a sport or something...
    
    x=palm mute
    =slide down
    >=let ring
    
    Intro
    Guitar 1
    |--------------------|
    |--------------------|
    |--------------------|
    |--------------------|
    |---47--69-7-7777777-|
    |--5---7---7-7777777-|
    |----------5-5555555-|
                 xxxxxxx
    Guitar 2
    |--------------------|
    |--------------------|
    |--------------------|
    |------------7777777-|
    |------------7777777-|
    |------------5555555-|
                 xxxxxxx
    
    Verse 1 (another day is going by...)
    Guitar 1
    |----------------------------------|
    |----------------------------------|
    |----------------------------------|
    |----7767----7767-2-2-7767--47--69-|
    |--------------------------5---7---|
    |-5-5-----4-4----------------------|
        xxxxx   xxxxx   xxxxx
    
    Guitar 2
    (keeps quiet)
    
    Verse 2 (and I wrote this letter...)
    Guitar 1
    (keeps playing verse 1)
    
    Guitar 2
    |--------------------------------------|
    |--------------------------------------|
    |----------------------------7-77-9-99-|
    |-7-777777-7-777777-4-444444-7-77-9-99-|
    |-7-777777-7-777777-4-444444-5-55-7-77-|
    |-5-555555-4-444444-2-222222-----------|
        xxxxxx   xxxxxx   xxxxxx   xx   xx
    
    Pre-chorus (this could be the one last chance...)
    
    Guitar 1                          
    |--------------------------------|---------------------------------------|
    |--------------------------------|----this-part-is-played-the-2nd-time---|
    |--------------------------------|-----------------------------9-9999999-|
    |----7767----7767----7767---7767-|-76----7767----7767----7767-9-9999999-|
    |---------4-4-----5-5-----77-----|-------------4-4-----5-5-----7-7777777-|
    |-7-7----------------------------|-----7-7-------------------------------|
        xxxxx   xxxxx   xxxxx  xxxxx        xxxxx   xxxxx   xxxxx   xxx
    
    Guitar 2
    |-------------------------------------|
    |-------------------------------------|
    |-4-444444-6-666666-7-777777-9-999999-|
    |-4-444444-6-666666-7-777777-9-999999-|
    |-2-222222-4-444444-5-555555-7-777777-|
    |-------------------------------------|
        xxxxxx   xxxxxx   xxxxxx   xxxxxx
    
    Chorus (i’d do anything...)
    
    Both guitars
    |------------------------------|---------------------------------|
    |------------------------------|---------------------------------|
    |-77--------------------------|-77-777--------------------------|
    |-77-7-77-777-22-222-4-44-444-|-77-777-7-77-777-22-222-4-44-444-|
    |-55-7-77-777-22-222-4-44-444-|-55-555-7-77-777-22-222-4-44-444-|
    |-----5-55-555-00-000-2-22-222-|--------5-55-555-00-000-2-22-222-|
    
    Bridge
    I haven’t figured out how goes the guitars but this is my bass part at the end
    (na na na na na na, I’d do anything for you)
    |--------------------|-------------------------|
    |--767--767--767-467-|--767--767---------------|
    |-5---------7--------|-5---------7>-7>-7>7>7>7-|
    |------5-------------|------5------------------|
    
    Guitar 1 or 2 (is just 1 guitar playing, so I think could be either or)
    |----------|---------------------|
    |----------|---------------------|
    |-7>----9>-|-7>----9>-9>-9>9>9>9-|
    |-7>-7>-9>-|-7>-7>-9>-9>-9>9>9>9-|
    |-5>-7>-7>-|-5>-7>-7>-7>-7>7>7>7-|
    |----5>----|----5>---------------|
    
    Last chorus (i’d do anything...)
    
    Both guitars
    |-----------------------|---------------------------------|
    |-----------------------|---------------------------------|
    |-77-------------------|-77-777--------------------------|
    |-77---22-222-4-44-444-|-77-777-7-77-777-22-222-4-44-444-|
    |-55---22-222-4-44-444-|-55-555-7-77-777-22-222-4-44-444-|
    |-------00-000-2-22-222-|--------5-55-555-00-000-2-22-222-|
    
    Bass
    |---------------------------|-----------|
    |---445566-----------667788-|-9-8-7-6---|
    |-55--------445566-77-------|---------9-|
    |---------55----------------|-----------|
    this fill is not right...but i’m too lazy to tab the       real ones
    
    Well, that’s basically it, if you find any mistake or figure out the bridge, send
    me an e-mail to dieandgo@hotmail.com. I think it is tabbed easy and correct, so
    just listen to the song to figure out the beat and all that stuff.
     

    Тональность:

    Это должно быть в ТОП-листе! - Топ-лист композиций



    Назад
    Рекомендуем посмотреть другие песни исполнителя «Simple Plan»:

    • Комменты Fb ()
    • Комменты ВК



    Добавить в Избранное Браузера
    Сохранить здесь Очистить


    x

    0


    +
    -

    +
    -

    -

    Авторизация





    Зарегистрироваться

    M

    Дата и время

    • 06:44:49
       

    Социальные ссылки


    Наши приложения

    • Muzbank App Play Market
    • Muzbank Amazon App