MUZBANK


МУЗЫКАЛЬНО-ИНФОРМАЦИОННЫЙ БАНК





SSinead O`Connor • Woman (аккорды и текст - chords & lyrics)


502

Print

Видео «Woman (Sinead O`Connor)»

Видео клипы к песне подбираются автоматически сайтом youtube. Возможны некоторые несоответствия клипов песне.

↑ Спрятать рекламу ↑





Verse 1 (x2)
G|-----------------|-----------------|----------------|-----------------|
D|-----------------|-----------------|----------------|-----------------|
A|-----------------|---------5-5---7-|----------------|---------5-5---0-|
E|-0---------0-0-3-|-5------5--------|-0---------0-0-3|-5------5--------|
1 & 2 & 3 & 4 & 1 & 2 & 3 & 4 & 1 & 2 & 3 & 4 & 1 & 2 & 3 & 4 &

G|-----------------|-----------------|
D|-----------------|-----------------|
A|-3-------5-5-----|-----7-----9---7-|
E|-----------------|-0-0------0------|
1 & 2 & 3 & 4 & 1 & 2 & 3 & 4 &

Verse 2
G|-----------------|-----------------|----------------|-----------------|
D|-----------------|-----------------|----------------|-----------------|
A|---------7-------|---------5-5---7-|---------7------|---------5---5-7-|
E|-0-0----0--0---3-|-5---------------|-0-0-0--0--0---3|-5------5--------|
1 & 2 & 3 & 4 & 1 & 2 & 3 & 4 & 1 & 2 & 3 & 4 & 1 & 2 & 3 & 4 &

G|-----------------|-----------------|
D|-----------------|-----------------|
A|-----7-----------|---------5-5---0-|
E|-0-0-------0-0-3-|-5------5--------|
1 & 2 & 3 & 4 & 1 & 2 & 3 & 4 &

G|-----------------|-----------------|----------------|-----------------|
D|-----------------|-----------------|----------------|-----------------|
A|-3-------5-5-----|-----7--57-7---7⁄|-3-------5-5----|-----7---579-7⁄⁄-|
E|-----------------|-0-0----------0--|----------------|-0-0----0--------|
1 & 2 & 3 & 4 & 1 & 2 & 3 & 4 & 1 & 2 & 3 & 4 & 1 & 2 & 3 & 4 &

Bridge
G|-----------------|-----------------|-----------------|-----------------|
D|-----------------|-----------------|-----------------|-----------------|
A|-----------------|-6-6-6-----6---6-|-7-7-7-----7--7--|57-7-7---797-575-|
E|-3-3-3-----3---3-|-----------------|----------0----0-|--------0--------|
1 & 2 & 3 & 4 & 1 & 2 & 3 & 4 & 1 & 2 & 3 & 4 & a1 & 2 & 3 & 4 &

Тональность:

Это должно быть в ТОП-листе! - Топ-лист композиций



Назад
Рекомендуем посмотреть другие песни исполнителя «Sinead O`Connor»:

  • Комменты Fb ()
  • Комменты ВК



Добавить в Избранное Браузера
Сохранить здесь Очистить


x

0


+
-

+
-

-

Авторизация





Зарегистрироваться

M

Дата и время

  • 23:54:33
     

Социальные ссылки


Наши приложения

  • Muzbank App Play Market
  • Muzbank Amazon App