MUZBANK


МУЗЫКАЛЬНО-ИНФОРМАЦИОННЫЙ БАНК





SSister Sin • Sound Of The Underground (аккорды и текст - chords & lyrics)


59

Print

Видео «Sound Of The Underground (Sister Sin)»

Видео клипы к песне подбираются автоматически сайтом youtube. Возможны некоторые несоответствия клипов песне.

↑ Спрятать рекламу ↑





You feel it coming and hear that roar
It′s moving in right through the flesh down to the core
I′ve got that power and strength to reclaim
What is ours, forget the past, rewind/erase

Won′t sit around til the world goes by (no, no, no no)
Now it′s our to claim so just step aside, you hear me?
Fuck the fashion and prove them wrong (yeah, yeah, yeah)
You hear me!
Tear down the walls, shake the world and
Break them down give them hell yeah
One by one
We stand as one and Ruled by none
To the sound of the underground

Step it up kid, earn your crown
Open your eyes and break the trend, no compromise
They got their side, we′ve got ours
Let s tear it up, brick by brick and pound for pound

Won′t sit around til the world goes by, (no, no, no no)
It′s our to claim so just step aside, you hear me?
Fuck the fashion and prove them wrong (yeah, yeah, yeah)
You hear me!

Tear down the walls, shake the world and
Break them down give them hell yeah One by one
We stand as one and Ruled by none
To the sound of the underground

Tear down the walls.
Shake down the world paint it black and make it bleed
Show no mercy for the weak.
We stand as one and
Ruled by none
To the sound of the underground, underground, underground
Break them down!






[Guitar-rythm #1]

                                     E  E     E  E  E  E  E  E  E  E   
E||-------|-------|-------|-------|--------|--------------------------|
B||-------|-------|-------|-------|--------|--------------------------|
G||-------|-------|-------|-------|--------|--------------------------|
D||-------|-------|-------|-------|--3--5--|--------------------------|
A||-------|-------|-------|-------|--3--5--|--------------------------|
E||-------|-------|-------|-------|--1--3--|--------------------------|
B||-------|-------|-------|-------|--------|--------------------------|


  E  E  E   E   E   E   E     W                   H        Q    Q     
---------------------------|-------------------|---------------------|
---------------------------|-------------------|---------------------|
---------------------------|-------------------|---------------------|
-----------10--10--10--10--|-------------------|---------------------|
------------8---8---8---8--|--5----------------|--5--------L----3----|
---------------------------|--3----------------|--3--------L----1----|
---------------------------|-------------------|---------------------|


  W                   H.           Q       W                 
-------------------|--------------------|-------------------|
-------------------|--------------------|-------------------|
-------------------|--------------------|-------------------|
-------------------|--------------------|-------------------|
-------------------|--------------------|--5----------------|
--6----------------|--6------------8----|--3----------------|
--4----------------|--4------------6----|-------------------|


  H        Q    Q       W                   H        E  E  E  E   
---------------------|-------------------|-----------------------|
---------------------|-------------------|-----------------------|
---------------------|-------------------|-----------------------|
---------------------|-------------------|-----------------------|
--5--------L----3----|-------------------|-----------------------|
--3--------L----1----|--6----------------|--6--------6--6--8--8--|
---------------------|--4----------------|--4--------4--4--6--6--|


  H        E  E  E  E     S S S S S S S S S S S S S S S S  
-----------------------|----------------------------------|
-----------------------|----------------------------------|
-----------------------|--7---------------------------5-7-|
--7--------7-----------|--7-0-0-0-0-0-0-0-0-0-0-0-0-0-5-7-|
--7--------7-----------|----------------------------------|
--5--------5-----------|----------------------------------|
-----------------------|----------------------------------|


  S S S S S S S S S S  S S S S S S    S S S S S S S S S S S S S S S S  
-----------------------------------|----------------------------------|
-----------------------------------|----------------------------------|
----------------------10---9---5-7-|------------------------------5-7-|
--0-0-0-0-0-0-0-0-0-0-10-0-9-0-5-7-|--0-0-0-0-0-0-0-0-0-0-0-0-0-0-5-7-|
-----------------------------------|----------------------------------|
-----------------------------------|----------------------------------|
-----------------------------------|----------------------------------|


  S S S S S S S S S S S S S S S S    S S S S S S S S S S S S S S S S  
----------------------------------|----------------------------------|
----------------------------------|----------------------------------|
------------------3-------5-------|--7---------------------------5-7-|
--0-0-0-0-0-0-0-0-3-------5-------|--7-0-0-0-0-0-0-0-0-0-0-0-0-0-5-7-|
--------------------1-1-1---3-3-3-|----------------------------------|
----------------------------------|----------------------------------|
----------------------------------|----------------------------------|


  S S S S S S S S S S  S S S S S S    S S S S S S S S S S S S S S S S  
-----------------------------------|----------------------------------|
-----------------------------------|----------------------------------|
----------------------10---9---5-7-|----------------------------------|
--0-0-0-0-0-0-0-0-0-0-10-0-9-0-5-7-|--0-0-0-0-0-0-0-0-----------------|
-----------------------------------|------------------1-1-1-1-3-3-3-3-|
-----------------------------------|----------------------------------|
-----------------------------------|----------------------------------|


  S S S S S S S S S  S  S  S  S  S  S    H        Q    Q     
--------------------------------------|---------------------|
--------------------------------------|---------------------|
--7-L-L-L-L-L-L-L-L--L-10-10-10-10-10-|--3--------L----5----|
--7-L-L-L-L-L-L-L-L--L-10-10-10-10-10-|--3--------L----5----|
--5-L-L-L-L-L-L-L-L--L----------------|--1--------L----3----|
--------------------------------------|---------------------|
--------------------------------------|---------------------|


  H         S  S  S  S S S S S    H        Q    Q       H         Q    Q     
-------------------------------|---------------------|----------------------|
-------------------------------|---------------------|----------------------|
--7--------10-10-10-10-9-9-9-9-|--3--------L----5----|--7--------10----5----|
--7----------------------------|--3--------L----5----|--7--------10----5----|
--5---------5--5--5--5-5-5-5-5-|--1--------L----3----|--5---------8----3----|
-------------------------------|---------------------|----------------------|
-------------------------------|---------------------|----------------------|


  H        Q    Q       H.           Q       H        Q    Q                 
---------------------|--------------------|---------------------|-----------|
---------------------|--------------------|---------------------|-----------|
--3--------L----5----|--7------------L----|---------------------|-----------|
--3--------L----5----|--7------------L----|--8--------7----3----|-----------|
--1--------L----3----|--5------------L----|--8--------7----3----|-----------|
---------------------|--------------------|--6--------5----1----|-----------|
---------------------|--------------------|---------------------|-----------|


  W                   H        Q    Q       W                 
-------------------|---------------------|-------------------|
-------------------|---------------------|-------------------|
-------------------|---------------------|-------------------|
-------------------|---------------------|-------------------|
--5----------------|--5--------L----3----|-------------------|
--3----------------|--3--------L----1----|--6----------------|
-------------------|---------------------|--4----------------|


  H.           E  E     W                   H        Q    Q     
---------------------|-------------------|---------------------|
---------------------|-------------------|---------------------|
---------------------|-------------------|---------------------|
---------------------|-------------------|---------------------|
---------------------|--5----------------|--5--------L----3----|
--6------------6--8--|--3----------------|--3--------L----1----|
--4------------4--6--|-------------------|---------------------|


  W                   W                   S S S S S S S S S S S S S S E   
-------------------|-------------------|---------------------------------|
-------------------|-------------------|---------------------------------|
-------------------|-------------------|---------------------------------|
-------------------|-------------------|------------------------------5--|
-------------------|-------------------|------------------------------3--|
--6----------------|--6----------------|---------------------------------|
--4----------------|--4----------------|--4-4-4-4-4-4-4-4-4-4-4-4-4-4----|


  E  S S S S S S S S S S S S S S    S S S S S S S S S S  S S S S S S  
---------------------------------|-----------------------------------|
---------------------------------|-----------------------------------|
-----------------------------5-7-|----------------------10---9---5-7-|
--7--0-0-0-0-0-0-0-0-0-0-0-0-5-7-|--0-0-0-0-0-0-0-0-0-0-10-0-9-0-5-7-|
--5------------------------------|-----------------------------------|
---------------------------------|-----------------------------------|
---------------------------------|-----------------------------------|


  S S S S S S S S S S S S S S S S    S S S S S S S S S S S S S S S S  
----------------------------------|----------------------------------|
----------------------------------|----------------------------------|
------------------------------5-7-|------------------3-------5-------|
--0-0-0-0-0-0-0-0-0-0-0-0-0-0-5-7-|--0-0-0-0-0-0-0-0-3-------5-------|
----------------------------------|--------------------1-1-1---3-3-3-|
----------------------------------|----------------------------------|
----------------------------------|----------------------------------|


  S S S S S S S S S S S S S S S S    S S S S S S S S S S  S S S S S S  
----------------------------------|-----------------------------------|
----------------------------------|-----------------------------------|
--7---------------------------5-7-|----------------------10---9---5-7-|
--7-0-0-0-0-0-0-0-0-0-0-0-0-0-5-7-|--0-0-0-0-0-0-0-0-0-0-10-0-9-0-5-7-|
----------------------------------|-----------------------------------|
----------------------------------|-----------------------------------|
----------------------------------|-----------------------------------|


  S S S S S S S S S S S S S S S S    S S S S S S S S S  S  S  S  S  S  S  
----------------------------------|--------------------------------------|
----------------------------------|--------------------------------------|
----------------------------------|--7-L-L-L-L-L-L-L-L--L-10-10-10-10-10-|
--0-0-0-0-0-0-0-0-----------------|--7-L-L-L-L-L-L-L-L--L-10-10-10-10-10-|
------------------1-1-1-1-3-3-3-3-|--5-L-L-L-L-L-L-L-L--L----------------|
----------------------------------|--------------------------------------|
----------------------------------|--------------------------------------|


  H        Q    Q       H         S  S  S  S S S S S    H        Q    Q     
---------------------|-------------------------------|---------------------|
---------------------|-------------------------------|---------------------|
--3--------L----5----|--7--------10-10-10-10-9-9-9-9-|--3--------L----5----|
--3--------L----5----|--7----------------------------|--3--------L----5----|
--1--------L----3----|--5---------5--5--5--5-5-5-5-5-|--1--------L----3----|
---------------------|-------------------------------|---------------------|
---------------------|-------------------------------|---------------------|


  H         Q    Q       H        Q    Q       H.           Q     
----------------------|---------------------|--------------------|
----------------------|---------------------|--------------------|
--7--------10----5----|--3--------L----5----|--7------------L----|
--7--------10----5----|--3--------L----5----|--7------------L----|
--5---------8----3----|--1--------L----3----|--5------------L----|
----------------------|---------------------|--------------------|
----------------------|---------------------|--------------------|


  H        Q    Q                   W                   H        Q    Q     
---------------------|-----------|-------------------|---------------------|
---------------------|-----------|-------------------|---------------------|
---------------------|-----------|-------------------|---------------------|
--8--------7----3----|-----------|-------------------|---------------------|
--8--------7----3----|-----------|--5----------------|--5--------L----3----|
--6--------5----1----|-----------|--3----------------|--3--------L----1----|
---------------------|-----------|-------------------|---------------------|


  W                   H.           Q       W                 
-------------------|--------------------|-------------------|
-------------------|--------------------|-------------------|
-------------------|--------------------|-------------------|
-------------------|--------------------|-------------------|
-------------------|--------------------|--5----------------|
--6----------------|--6------------8----|--3----------------|
--4----------------|--4------------6----|-------------------|


  H        Q    Q       W                   H        Q    Q     
---------------------|-------------------|---------------------|
---------------------|-------------------|---------------------|
---------------------|-------------------|---------------------|
---------------------|-------------------|---------------------|
--5--------L----3----|-------------------|---------------------|
--3--------L----1----|--6----------------|--6--------6----8----|
---------------------|--4----------------|--4--------4----6----|


  W                   H        Q    Q       W                 
-------------------|---------------------|-------------------|
-------------------|---------------------|-------------------|
-------------------|---------------------|-------------------|
-------------------|---------------------|-------------------|
--5----------------|--5--------L----3----|-------------------|
--3----------------|--3--------L----1----|--6----------------|
-------------------|---------------------|--4----------------|


  H.           Q       W                   H        Q    Q     
--------------------|-------------------|---------------------|
--------------------|-------------------|---------------------|
--------------------|-------------------|---------------------|
--------------------|-------------------|---------------------|
--------------------|--5----------------|--5--------L----3----|
--6------------8----|--3----------------|--3--------L----1----|
--4------------6----|-------------------|---------------------|


  W                   H        Q    Q       E  S S S S E  S S S S E  S S  
-------------------|---------------------|-------------------------------|
-------------------|---------------------|-------------------------------|
-------------------|---------------------|-------------------------------|
-------------------|---------------------|-------------------------------|
-------------------|---------------------|--5----------5----------5------|
--6----------------|--6--------6----8----|--3--3-3-3-3-3--3-3-3-3-3--3-3-|
--4----------------|--4--------4----6----|-------------------------------|


  E  S S S S E  S S S S E  S S    E  S S S S E  S S S S E  S S  
-------------------------------|-------------------------------|
-------------------------------|-------------------------------|
-------------------------------|-------------------------------|
-------------------------------|-------------------------------|
--5----------5----------5------|-------------------------------|
--3--3-3-3-3-3--3-3-3-3-3--3-3-|--6----------6----------6------|
-------------------------------|--4--4-4-4-4-4--4-4-4-4-4--4-4-|


  E  S E  S E  Q    Q       E  E  H.              H        Q     Q     
-------------------------|---------------------|----------------------|
-------------------------|---------------------|----------------------|
-------------------------|---------------------|----------------------|
-------------------------|---------------------|--5--------8----10----|
-------------------------|--5------------------|--5--------8----10----|
--6----6----6--8----L----|--3------------------|--3--------6-----8----|
--4----4----4--6----L----|---------------------|----------------------|


  W                   H        Q    Q       W                 
-------------------|---------------------|-------------------|
-------------------|---------------------|-------------------|
-------------------|---------------------|-------------------|
--2----------------|--2--------L----0----|-------------------|
--0----------------|--0--------L---------|--3----------------|
-------------------|----------------3----|--1----------------|
-------------------|---------------------|-------------------|


  H.           Q       W                   H        Q    Q     
--------------------|-------------------|---------------------|
--------------------|-------------------|---------------------|
--------------------|-------------------|---------------------|
---------------0----|--2----------------|--2--------L----0----|
--3-----------------|--0----------------|--0--------L---------|
--1------------3----|-------------------|----------------3----|
--------------------|-------------------|---------------------|


  W                   H        S S S S S S S S    W                 
-------------------|---------------------------|-------------------|
-------------------|---------------------------|-------------------|
-------------------|---------------------------|-------------------|
-------------------|-----------5-5-5-5-5-5-5-5-|-------------------|
--3----------------|--3--------3-3-3-3-3-3-3-3-|--5----------------|
--1----------------|--1------------------------|--3----------------|
-------------------|---------------------------|-------------------|


  H        Q    Q       W                   H.           Q     
---------------------|-------------------|--------------------|
---------------------|-------------------|--------------------|
---------------------|-------------------|--------------------|
---------------------|-------------------|--------------------|
--5--------L----3----|-------------------|--------------------|
--3--------L----1----|--6----------------|--6------------8----|
---------------------|--4----------------|--4------------6----|


  W                   H        Q    Q       W                 
-------------------|---------------------|-------------------|
-------------------|---------------------|-------------------|
-------------------|---------------------|-------------------|
-------------------|---------------------|-------------------|
--5----------------|--5--------L----3----|-------------------|
--3----------------|--3--------L----1----|--6----------------|
-------------------|---------------------|--4----------------|


  H        Q    Q       E  E  E  E     W                 
---------------------|--------------|-------------------|
---------------------|--------------|-------------------|
---------------------|--------------|-------------------|
---------------------|--------------|--5----------------|
----------------8----|--7-----------|--5----------------|
--6--------6----6----|--5-----------|--3----------------|
--4--------4---------|--------------|-------------------|


  H         E   E   E   E          
---------------------------|-----||
---------------------------|-----||
---------------------------|-----||
--L--------10--10--10--10--|-----||
--L---------8---8---8---8--|-----||
--L------------------------|-----||
---------------------------|-----||

 



[Guitar-rythm #2]

Pista 2
                                             S S S S S S S S S S S S S S S S  
E||-------|-------|-------|-------|-------|----------------------------------|
B||-------|-------|-------|-------|-------|----------------------------------|
G||-------|-------|-------|-------|-------|--7---7---7---5---5---5---5---8---|
D||-------|-------|-------|-------|-------|--7---7---7---5---5---5---5---5---|
A||-------|-------|-------|-------|-------|----------------------------------|
E||-------|-------|-------|-------|-------|----------------------------------|
B||-------|-------|-------|-------|-------|----------------------------------|


  S S S S S S E  E  E  E     S S S S S S S S S S S S S S S S  
--------------------------|----------------------------------|
--------------------------|----------------------------------|
--8---8---8---------------|--3-0-x-0-L-x-3-0-x-0-L-L-L-L-x-x-|
--5---5---5---3--3--3--3--|--3-0-x-0-L-x-3-0-x-0-L-L-L-L-x-x-|
--------------3--3--3--3--|----------------------------------|
--------------1--1--1--1--|----------------------------------|
--------------------------|----------------------------------|


  S S S S S S S S S S S S S S S S    S S S S S S S S S S S S S S S S  
----------------------------------|----------------------------------|
----------------------------------|----------------------------------|
--3-0-x-0-L-x-3-0-x-0-L-L-L-L-x-x-|--2-0-x-0-L-x-2-0-x-0-L-L-L-L-x-x-|
--3-0-x-0-L-x-3-0-x-0-L-L-L-L-x-x-|--3-1-x-1-L-x-3-1-x-1-L-L-L-L-x-x-|
----------------------------------|----------------------------------|
----------------------------------|----------------------------------|
----------------------------------|----------------------------------|


  S S S S S S S S S S S S S S S S    S S S S S S S S S S S S S S S S  
----------------------------------|----------------------------------|
----------------------------------|----------------------------------|
--2-0-x-0-L-x-2-0-x-0-L-L-L-L-x-x-|--3-0-x-0-L-x-3-0-x-0-L-L-L-L-x-x-|
--3-1-x-1-L-x-3-1-x-1-L-L-L-L-x-x-|--3-0-x-0-L-x-3-0-x-0-L-L-L-L-x-x-|
----------------------------------|----------------------------------|
----------------------------------|----------------------------------|
----------------------------------|----------------------------------|


  S S S S S S S S S S S S S S S S    S S S S S S S S S S S S S S S S  
----------------------------------|----------------------------------|
----------------------------------|----------------------------------|
--3-0-x-0-L-x-3-0-x-0-L-L-L-L-x-x-|--2-0-x-0-L-x-2-0-x-0-L-L-L-L-x-x-|
--3-0-x-0-L-x-3-0-x-0-L-L-L-L-x-x-|--3-1-x-1-L-x-3-1-x-1-L-L-L-L-x-x-|
----------------------------------|----------------------------------|
----------------------------------|----------------------------------|
----------------------------------|----------------------------------|


  S S S S S S S S S S S S S S S S         S S S S S S S S S S S S S S S S  
----------------------------------|----|----------------------------------|
----------------------------------|----|----------------------------------|
--2-0-x-0-L-x-2-0-x---8-----------|----|----------------------------------|
--3-1-x-1-L-x-3-1-x---6-----------|----|----------------------------------|
----------------------------------|----|----------------------------------|
----------------------------------|----|----------------------------------|
----------------------------------|----|--3-3-3-3-3-3-3-3-3-3-3-3-3-3-3-3-|


  S S S S S S S S S S S S S S S S    S S S S S S S S S S S S S S S S  
----------------------------------|----------------------------------|
----------------------------------|----------------------------------|
----------------------------------|----------------------------------|
----------------------------------|----------------------------------|
----------------------------------|----------------------------------|
----------------------------------|----------------------------------|
--3-3-3-3-3-3-3-3-3-3-3-3-3-3-3-3-|--3-3-3-3-3-3-3-3-3-3-3-3-3-3-3-3-|


  S S S S S S S S S S S S S S S S    S S S S S S S S S S S S S S S S  
----------------------------------|----------------------------------|
----------------------------------|----------------------------------|
----------------------------------|----------------------------------|
----------------------------------|----------------------------------|
----------------------------------|----------------------------------|
------------------6-6-6-6-8-8-8-8-|----------------------------------|
--3-3-3-3-3-3-3-3-----------------|--3-3-3-3-3-3-3-3-3-3-3-3-3-3-3-3-|


  S S S S S S S S S S S S S S S S    S S S S S S S S S S S S S S S S  
----------------------------------|----------------------------------|
----------------------------------|----------------------------------|
----------------------------------|----------------------------------|
----------------------------------|----------------------------------|
----------------------------------|----------------------------------|
----------------------------------|------------------6-6-6-6-8-8-8-8-|
--3-3-3-3-3-3-3-3-3-3-3-3-3-3-3-3-|--3-3-3-3-3-3-3-3-----------------|


  Q    Q    E  S S S S S    H.           Q       W                 
-------------------------|--------------------|-------------------|
-------------------------|--------------------|-------------------|
-------------------------|--------------------|-------------------|
---------------3-3-3-3-3-|--8-----------------|-------------------|
--5----L----L--3-3-3-3-3-|--8-----------------|--5----------------|
--5----L----L--1-1-1-1-1-|--6------------3----|--5----------------|
--3----L----L------------|---------------1----|--3----------------|


  H.           Q       H        Q    Q       H.           Q     
--------------------|---------------------|--------------------|
--------------------|---------------------|--------------------|
--------------------|---------------------|--------------------|
--8-----------------|-----------3---------|--8-----------------|
--8-----------------|--5--------3---------|--8-----------------|
--6------------3----|--5--------1----3----|--6------------3----|
---------------1----|--3-------------1----|---------------1----|


  H.           Q       H        Q    Q     
--------------------|---------------------|
--------------------|---------------------|
--------------------|---------------------|
--------------------|--8--------7----3----|
--5------------L----|--8--------7----3----|
--5------------L----|--6--------5----1----|
--3------------L----|---------------------|


  PM PM PM PM PM PM PM PM PM PM PM PM PM PM PM PM  
  S  S  S  S  S  S  S  S  S  S  S  S  S  S  S  S   
--------------------------------------------------|
--------------------------------------------------|
--------------------------------------------------|
--------------------------------------------------|
--------------------------------------------------|
--3--3--3--3--3--3--3--3--3--3--3--3--3--3--3--3--|
--------------------------------------------------|


  S S S S S S S S S S S S S S S S    S S S S S S S S S S S S S S S S  
----------------------------------|----------------------------------|
----------------------------------|----------------------------------|
--3-0-x-0-L-x-3-0-x-0-L-L-L-L-x-x-|--3-0-x-0-L-x-3-0-x-0-L-L-L-L-x-x-|
--3-0-x-0-L-x-3-0-x-0-L-L-L-L-x-x-|--3-0-x-0-L-x-3-0-x-0-L-L-L-L-x-x-|
----------------------------------|----------------------------------|
----------------------------------|----------------------------------|
----------------------------------|----------------------------------|


  S S S S S S S S S S S S S S S S    S S S S S S S S S S S S S S S S  
----------------------------------|----------------------------------|
----------------------------------|----------------------------------|
--2-0-x-0-L-x-2-0-x-0-L-L-L-L-x-x-|--2-0-x-0-L-x-2-0-x-0-L-L-L-L-x-x-|
--3-1-x-1-L-x-3-1-x-1-L-L-L-L-x-x-|--3-1-x-1-L-x-3-1-x-1-L-L-L-L-x-x-|
----------------------------------|----------------------------------|
----------------------------------|----------------------------------|
----------------------------------|----------------------------------|


  S S S S S S S S S S S S S S S S    S S S S S S S S S S S S S S S S  
----------------------------------|----------------------------------|
----------------------------------|----------------------------------|
--3-0-x-0-L-x-3-0-x-0-L-L-L-L-x-x-|--3-0-x-0-L-x-3-0-x-0-L-L-L-L-x-x-|
--3-0-x-0-L-x-3-0-x-0-L-L-L-L-x-x-|--3-0-x-0-L-x-3-0-x-0-L-L-L-L-x-x-|
----------------------------------|----------------------------------|
----------------------------------|----------------------------------|
----------------------------------|----------------------------------|


  S S S S S S S S S S S S S S S S    S S S S S S S S S S S S S S S S       
----------------------------------|----------------------------------|----|
----------------------------------|----------------------------------|----|
--2-0-x-0-L-x-2-0-x-0-L-L-L-L-x-x-|--2-0-x-0-L-x-2-0-x-0-L-L-L-L-x-x-|----|
--3-1-x-1-L-x-3-1-x-1-L-L-L-L-x-x-|--3-1-x-1-L-x-3-1-x-1-L-L-L-L-x-x-|----|
----------------------------------|----------------------------------|----|
----------------------------------|----------------------------------|----|
----------------------------------|----------------------------------|----|


  S S S S S S S S S S S S S S S S    S S S S S S S S S S S S S S S S  
----------------------------------|----------------------------------|
----------------------------------|----------------------------------|
----------------------------------|----------------------------------|
----------------------------------|----------------------------------|
----------------------------------|----------------------------------|
----------------------------------|----------------------------------|
--3-3-3-3-3-3-3-3-3-3-3-3-3-3-3-3-|--3-3-3-3-3-3-3-3-3-3-3-3-3-3-3-3-|


  S S S S S S S S S S S S S S S S    S S S S S S S S S S S S S S S S  
----------------------------------|----------------------------------|
----------------------------------|----------------------------------|
----------------------------------|----------------------------------|
----------------------------------|----------------------------------|
----------------------------------|----------------------------------|
----------------------------------|------------------6-6-6-6-8-8-8-8-|
--3-3-3-3-3-3-3-3-3-3-3-3-3-3-3-3-|--3-3-3-3-3-3-3-3-----------------|


  S S S S S S S S S S S S S S S S    S S S S S S S S S S S S S S S S  
----------------------------------|----------------------------------|
----------------------------------|----------------------------------|
----------------------------------|----------------------------------|
----------------------------------|----------------------------------|
----------------------------------|----------------------------------|
----------------------------------|----------------------------------|
--3-3-3-3-3-3-3-3-3-3-3-3-3-3-3-3-|--3-3-3-3-3-3-3-3-3-3-3-3-3-3-3-3-|


  S S S S S S S S S S S S S S S S    Q    Q    E  S S S S S  
----------------------------------|-------------------------|
----------------------------------|-------------------------|
----------------------------------|-------------------------|
----------------------------------|---------------3-3-3-3-3-|
----------------------------------|--5----L----L--3-3-3-3-3-|
------------------6-6-6-6-8-8-8-8-|--5----L----L--1-1-1-1-1-|
--3-3-3-3-3-3-3-3-----------------|--3----L----L------------|


  H.           Q       W                   H.           Q     
--------------------|-------------------|--------------------|
--------------------|-------------------|--------------------|
--------------------|-------------------|--------------------|
--8-----------------|-------------------|--8-----------------|
--8-----------------|--5----------------|--8-----------------|
--6------------3----|--5----------------|--6------------3----|
---------------1----|--3----------------|---------------1----|


  H        Q    Q       H.           Q       H.           Q     
---------------------|--------------------|--------------------|
---------------------|--------------------|--------------------|
---------------------|--------------------|--------------------|
-----------3---------|--8-----------------|--------------------|
--5--------3---------|--8-----------------|--5------------L----|
--5--------1----3----|--6------------3----|--5------------L----|
--3-------------1----|---------------1----|--3------------L----|


                        PM PM PM PM PM PM PM PM PM PM PM PM PM PM PM PM  
  H        Q    Q       S  S  S  S  S  S  S  S  S  S  S  S  S  S  S  S   
---------------------|--------------------------------------------------|
---------------------|--------------------------------------------------|
---------------------|--------------------------------------------------|
--8--------7----3----|--------------------------------------------------|
--8--------7----3----|--------------------------------------------------|
--6--------5----1----|--3--3--3--3--3--3--3--3--3--3--3--3--3--3--3--3--|
---------------------|--------------------------------------------------|


  S S S S S S S S S S S S S S S S    S S S S S S S S S S S S S S S S  
----------------------------------|----------------------------------|
----------------------------------|----------------------------------|
--3-0-x-0-L-x-3-0-x-0-L-L-L-L-x-x-|--3-0-x-0-L-x-3-0-x-0-L-L-L-L-x-x-|
--3-0-x-0-L-x-3-0-x-0-L-L-L-L-x-x-|--3-0-x-0-L-x-3-0-x-0-L-L-L-L-x-x-|
----------------------------------|----------------------------------|
----------------------------------|----------------------------------|
----------------------------------|----------------------------------|


  S S S S S S S S S S S S S S S S    S S S S S S S S S S S S S S S S  
----------------------------------|----------------------------------|
----------------------------------|----------------------------------|
--2-0-x-0-L-x-2-0-x-0-L-L-L-L-x-x-|--2-0-x-0-L-x-2-0-x-0-L-L-L-L-x-x-|
--3-1-x-1-L-x-3-1-x-1-L-L-L-L-x-x-|--3-1-x-1-L-x-3-1-x-1-L-L-L-L-x-x-|
----------------------------------|----------------------------------|
----------------------------------|----------------------------------|
----------------------------------|----------------------------------|


  S S S S S S S S S S S S S S S S    S S S S S S S S S S S S S S S S  
----------------------------------|----------------------------------|
----------------------------------|----------------------------------|
--3-0-x-0-L-x-3-0-x-0-L-L-L-L-x-x-|--3-0-x-0-L-x-3-0-x-0-L-L-L-L-x-x-|
--3-0-x-0-L-x-3-0-x-0-L-L-L-L-x-x-|--3-0-x-0-L-x-3-0-x-0-L-L-L-L-x-x-|
----------------------------------|----------------------------------|
----------------------------------|----------------------------------|
----------------------------------|----------------------------------|


  S S S S S S S S S S S S S S S S    S S S S S S S S S S S S S S S S  
----------------------------------|----------------------------------|
----------------------------------|----------------------------------|
--2-0-x-0-L-x-2-0-x-0-L-L-L-L-x-x-|--2-0-x-0-L-x-2-0-x-0-L-L-L-L-x-x-|
--3-1-x-1-L-x-3-1-x-1-L-L-L-L-x-x-|--3-1-x-1-L-x-3-1-x-1-L-L-L-L-x-x-|
----------------------------------|----------------------------------|
----------------------------------|----------------------------------|
----------------------------------|----------------------------------|


  S S S S S S S S S S S S S S S S    S S S S S S S S S S S S S S S S  
----------------------------------|----------------------------------|
----------------------------------|----------------------------------|
--3-0-x-0-L-x-3-0-x-0-L-L-L-L-x-x-|--3-0-x-0-L-x-3-0-x-0-L-L-L-L-x-x-|
--3-0-x-0-L-x-3-0-x-0-L-L-L-L-x-x-|--3-0-x-0-L-x-3-0-x-0-L-L-L-L-x-x-|
----------------------------------|----------------------------------|
----------------------------------|----------------------------------|
----------------------------------|----------------------------------|


  S S S S S S S S S S S S S S S S    S S S S S S S S S S S S S S S S  
----------------------------------|----------------------------------|
----------------------------------|----------------------------------|
--2-0-x-0-L-x-2-0-x-0-L-L-L-L-x-x-|--2-0-x-0-L-x-2-0-x-0-L-L-L-L-x-x-|
--3-1-x-1-L-x-3-1-x-1-L-L-L-L-x-x-|--3-1-x-1-L-x-3-1-x-1-L-L-L-L-x-x-|
----------------------------------|----------------------------------|
----------------------------------|----------------------------------|
----------------------------------|----------------------------------|


  S S S S S S S S S S S S S S S S    S S S S S S S S S S S S S S S S  
----------------------------------|----------------------------------|
----------------------------------|----------------------------------|
--3-0-x-0-L-x-3-0-x-0-L-L-L-L-x-x-|--3-0-x-0-L-x-3-0-x-0-L-L-L-L-x-x-|
--3-0-x-0-L-x-3-0-x-0-L-L-L-L-x-x-|--3-0-x-0-L-x-3-0-x-0-L-L-L-L-x-x-|
----------------------------------|----------------------------------|
----------------------------------|----------------------------------|
----------------------------------|----------------------------------|


  S S S S S S S S S S S S S S S S    S S S S S S S S S S S S S S S S            
----------------------------------|----------------------------------|----|----|
----------------------------------|----------------------------------|----|----|
--2-0-x-0-L-x-2-0-x-0-L-L-L-L-x-x-|--2-0-x-0-L-x-2-0-x-0-L-L-L-L-x-x-|----|----|
--3-1-x-1-L-x-3-1-x-1-L-L-L-L-x-x-|--3-1-x-1-L-x-3-1-x-1-L-L-L-L-x-x-|----|----|
----------------------------------|----------------------------------|----|----|
----------------------------------|----------------------------------|----|----|
----------------------------------|----------------------------------|----|----|


                      S S S S S S S S S S S S S S S S  
----|----|----|----|----------------------------------|
----|----|----|----|--1-----------1-------------------|
----|----|----|----|--0-2-x-2-L-x-0-2-x-2-L-L-L-L-x-x-|
----|----|----|----|----2-x-2-L-x---2-x-2-L-L-L-L-x-x-|
----|----|----|----|----------------------------------|
----|----|----|----|----------------------------------|
----|----|----|----|----------------------------------|


  S S S S S S S S S S S S S S S S    S S S S S S S S S S S S S S S S  
----------------------------------|----------------------------------|
--1-----------1-------------------|--0-----------0-------------------|
--0-2-x-2-L-x-0-2-x-2-L-L-L-L-x-x-|--0-2-x-2-L-x-0-2-x-2-L-L-L-L-x-x-|
----2-x-2-L-x---2-x-2-L-L-L-L-x-x-|----3-x-3-L-x---3-x-3-L-L-L-L-x-x-|
----------------------------------|----------------------------------|
----------------------------------|----------------------------------|
----------------------------------|----------------------------------|


  S S S S S S S S S S S S S S S S    S S S S S S S S S S S S S S S S  
----------------------------------|----------------------------------|
--0-----------0-------------------|--1-----------1-------------------|
--0-2-x-2-L-x-0-2-x-2-L-L-L-L-x-x-|--0-2-x-2-L-x-0-2-x-2-L-L-L-L-x-x-|
----3-x-3-L-x---3-x-3-L-L-L-L-x-x-|----2-x-2-L-x---2-x-2-L-L-L-L-x-x-|
----------------------------------|----------------------------------|
----------------------------------|----------------------------------|
----------------------------------|----------------------------------|


  S S S S S S S S S S S S S S S S    S S S S S S S S S S S S S S S S  
----------------------------------|----------------------------------|
--1-----------1-------------------|--0-----------0-------------------|
--0-2-x-2-L-x-0-2-x-2-L-L-L-L-x-x-|--0-2-x-2-L-x-0-2-x-2-L-L-L-L-x-x-|
----2-x-2-L-x---2-x-2-L-L-L-L-x-x-|----3-x-3-L-x---3-x-3-L-L-L-L-x-x-|
----------------------------------|----------------------------------|
----------------------------------|----------------------------------|
----------------------------------|----------------------------------|


  S S S S S S S S S S S S S S S S    S S S S S S S S S S S S S S S S  
----------------------------------|----------------------------------|
--0-----------0-------------------|----------------------------------|
--0-2-x-2-L-x-0-2-x---------------|--3-0-x-0-L-x-3-0-x-0-L-L-L-L-x-x-|
----3-x-3-L-x---3-x---------------|--3-0-x-0-L-x-3-0-x-0-L-L-L-L-x-x-|
----------------------------------|----------------------------------|
----------------------------------|----------------------------------|
----------------------------------|----------------------------------|


  S S S S S S S S S S S S S S S S    S S S S S S S S S S S S S S S S  
----------------------------------|----------------------------------|
----------------------------------|----------------------------------|
--3-0-x-0-L-x-3-0-x-0-L-L-L-L-x-x-|--2-0-x-0-L-x-2-0-x-0-L-L-L-L-x-x-|
--3-0-x-0-L-x-3-0-x-0-L-L-L-L-x-x-|--3-1-x-1-L-x-3-1-x-1-L-L-L-L-x-x-|
----------------------------------|----------------------------------|
----------------------------------|----------------------------------|
----------------------------------|----------------------------------|


  S S S S S S S S S S S S S S S S    S S S S S S S S S S S S S S S S  
----------------------------------|----------------------------------|
----------------------------------|----------------------------------|
--2-0-x-0-L-x-2-0-x-0-L-L-L-L-x-x-|--3-0-x-0-L-x-3-0-x-0-L-L-L-L-x-x-|
--3-1-x-1-L-x-3-1-x-1-L-L-L-L-x-x-|--3-0-x-0-L-x-3-0-x-0-L-L-L-L-x-x-|
----------------------------------|----------------------------------|
----------------------------------|----------------------------------|
----------------------------------|----------------------------------|


  S S S S S S S S S S S S S S S S    S S S S S S S S S S S S S S S S  
----------------------------------|----------------------------------|
----------------------------------|----------------------------------|
--3-0-x-0-L-x-3-0-x-0-L-L-L-L-x-x-|--2-0-x-0-L-x-2-0-x-0-L-L-L-L-x-x-|
--3-0-x-0-L-x-3-0-x-0-L-L-L-L-x-x-|--3-1-x-1-L-x-3-1-x-1-L-L-L-L-x-x-|
----------------------------------|----------------------------------|
----------------------------------|----------------------------------|
----------------------------------|----------------------------------|


  S S S S S S S S S S S S S S S S         S S S S S S S S S S S S S S S S  
----------------------------------|----|----------------------------------|
----------------------------------|----|----------------------------------|
--2-0-x-0-L-x-2-0-x---------------|----|--7---7---7---7---5---5---5---5---|
--3-1-x-1-L-x-3-1-x---------------|----|--7---7---7---7---5---5---5---5---|
----------------------------------|----|----------------------------------|
----------------------------------|----|----------------------------------|
----------------------------------|----|----------------------------------|


  S S S S S S S S E  E  E  E     E    
------------------------------|-----||
------------------------------|-----||
--8---8---8---8---------------|-----||
--5---5---5---5---3--3--3--3--|--5--||
------------------3--3--3--3--|--5--||
------------------1--1--1--1--|--3--||
------------------------------|-----||




[Guitar 3 - solo part 1]


   H          Q.       E       E   E  Q     Q      Q         W                  
---------------------------|-----------------------------|---------------------|
--11---------10-------11---|--11---L--L----11-----13-----|---8-----------------|
--13b--------12b------13b--|--13b--L--L----13b----15b----|--10b----------------|
---------------------------|-----------------------------|---------------------|
---------------------------|-----------------------------|---------------------|
---------------------------|-----------------------------|---------------------|


   Q.       S  S  H            H          Q.       E    
---------------------------|---------------------------|
--15-------18-15--L--------|--11---------10-------11---|
--17b-------L-17b-L--------|--13b--------12b------13b--|
---------------------------|---------------------------|
---------------------------|---------------------------|
---------------------------|---------------------------|


   E   E  Q     Q      Q         W                     Q.       S  S  H         
-----------------------------|---------------------|-----------18--------------|
--11---L--L----11-----13-----|---8-----------------|--18b---------18b-L--------|
--13b--L--L----13b----15b----|--10b----------------|---------------------------|
-----------------------------|---------------------|---------------------------|
-----------------------------|---------------------|---------------------------|
-----------------------------|---------------------|---------------------------|






[Guitar 3 - solo part 2]



   H          Q.       E       E   E  Q     Q      Q         W                  
---8----------7--------8---|---8---L--L------------------|---------------------|
--11b--------10b------11b--|--11b--L--L----13-----15-----|---------------------|
---------------------------|---------------15b----17b----|--14-----------------|
---------------------------|-----------------------------|--17b----------------|
---------------------------|-----------------------------|---------------------|
---------------------------|-----------------------------|---------------------|


   Q.       S  S  H            H          Q.       E    
-----------15-----L--------|---------------------------|
--17----------17-----------|--13---------12-------13---|
--19b-------L-19b-L--------|--15b--------14b------15b--|
---------------------------|---------------------------|
---------------------------|---------------------------|
---------------------------|---------------------------|


   E   E  Q     Q      Q         W                    Q.     S S              
-------L--L------------------|---------------------|-------------|-----------|
--13-----------13-----15-----|---------------------|-------------|-----------|
--15b--L--L----15b----17b----|--14-----------------|-------------|-----------|
-----------------------------|--17b----------------|-------------|-----------|
-----------------------------|---------------------|-------------|-----------|
-----------------------------|---------------------|-------------|-----------|


                                                  H         Q      Q      
-----------|-----------|-----------|-----------|-------------------------|
-----------|-----------|-----------|-----------|-----------15-----13-----|
-----------|-----------|-----------|-----------|-----------17b----15b----|
-----------|-----------|-----------|-----------|-------------------------|
-----------|-----------|-----------|-----------|-------------------------|
-----------|-----------|-----------|-----------|-------------------------|


   W                                                                   
---------------------|-----------|-----------|-------|-------|-------||
--11-----------------|-----------|-----------|-------|-------|-------||
--13b----------------|-----------|-----------|-------|-------|-------||
---------------------|-----------|-----------|-------|-------|-------||
---------------------|-----------|-----------|-------|-------|-------||
---------------------|-----------|-----------|-------|-------|-------||




Duration Legend
---------------
W - whole
H - half
Q - quarter
E - 8th
S - 16th
T - 32nd
X - 64th
. - note dotted
|-n-|  - n-tuplets


Tablature Legend
----------------
L - tied note
x - dead note
g - grace note
(n) - ghost note
> - accentuded note
NH - natural harmonic
AH - artificial harmonic
TH - tapped harmonic
SH - semi harmonic
PH - pitch harmonic
h - hammer on
p - pull off
b - bend
br - bendRelease
pb - preBend
pbr - preBendRelease
brb - bendReleaseBend
\n/ - tremolo bar dip
\n - tremolo bar dive
-/n - tremolo bar Release up
/n\ - tremolo bar inverted dip
/n - tremolo bar return
-\n - tremolo bar Release down
S - shift slide
s - legato slide
/ -  slide into from below or out of upwards
\ -  slide into from above or out of downwards
~ - vibrato
W - wide vibrato
tr - trill
TP - tremolo picking
T - tapping
S - slap
P - pop
< - fade in
^ - brush up
v - brush down

Тональность:

Это должно быть в ТОП-листе! - Топ-лист композиций



Назад
Рекомендуем посмотреть другие песни исполнителя «Sister Sin»:

  • Комменты Fb ()
  • Комменты ВК



Добавить в Избранное Браузера
Сохранить здесь Очистить


x

0


+
-

+
-

-

Авторизация





Зарегистрироваться

M

Дата и время

  • 20:17:05
     

Социальные ссылки


Наши приложения

  • Muzbank App Play Market
  • Muzbank Amazon App