MUZBANK



A MOST COMPLETE BANK OF MUSIC INFORMATION

МУЗЫКАЛЬНО-ИНФОРМАЦИОННЫЙ БАНК







    SSix Feet Under • A Journey Into Darkness (аккорды и текст - chords & lyrics)


    251

    Print

    Видео «A Journey Into Darkness (Six Feet Under)»

    Видео клипы к песне подбираются автоматически сайтом youtube. Возможны некоторые несоответствия клипов песне.

    ↑ Спрятать рекламу ↑





     
    
    
    Tabbed by:THE SANDMAN
    Email:ryan5@iamwasted.com
    
    Tuning:D G C F A D
    
    
    
    |----------------------|
    |----------------------|
    |----------------------|
    |---------5---------5--|
    |---------5---------5--|
    |-0-0-0-0-3--0--0-0-3--|
      .......    .  ...
    
    
    |-----------------------------|
    |-12-----11-----10-----9------|
    |-14b16--13b15--12b14--11b13--|
    |-----------------------------|
    |-----------------------------|
    |-----------------------------|
    
    
    |-----------------------|
    |-----------------------|
    |-----------------------|
    |-2-2--------2-2--------|
    |-2-2--------2-2--------|
    |-0-0--------0-0--------|
    
    
    |---------------------------------|
    |---------------------------------|
    |---------------------------------|
    |-3-------6-------3-------5-------|
    |-3-------6-------3-------5-------|
    |-1-0-0-0-4-0-0-0-1-0-0-0-3-0-0-0-|
        .....   .....   .....   .....
    
    
    |--------|
    |--------|
    |--------|
    |-2-2----|
    |-2-2----|
    |-0-0----|
     

    Тональность:

    Это должно быть в ТОП-листе! - Топ-лист композиций



    Назад
    Рекомендуем посмотреть другие песни исполнителя «Six Feet Under»:

    • Комменты Fb ()
    • Комменты ВК



    Добавить в Избранное Браузера
    Сохранить здесь Очистить


    x

    0


    +
    -

    +
    -

    -

    Авторизация





    Зарегистрироваться

    M

    Дата и время

    • 02:48:44
       

    Социальные ссылки


    Наши приложения

    • Muzbank App Play Market
    • Muzbank Amazon App