MUZBANK



A MOST COMPLETE BANK OF MUSIC INFORMATION

МУЗЫКАЛЬНО-ИНФОРМАЦИОННЫЙ БАНК







    SSix Feet Under • No Warning Machine (аккорды и текст - chords & lyrics)


    304

    Print

    Видео «No Warning Machine (Six Feet Under)»

    Видео клипы к песне подбираются автоматически сайтом youtube. Возможны некоторые несоответствия клипов песне.

    ↑ Спрятать рекламу ↑





     
    
    
    Six Feet Under
    No Warning Shot
    
    Tabbed by: KHMM Slayer
    If you have any questions about this tab email me at:
    slaughter_babies@hotmail.com
    
    Tuned to: C
    
    . = Palm Mute
    
    Riff 1
    |----------------|
    |----------------|
    |----------------|
    |----------------|
    |----55556666----|
    |3333--------5555|
    Riff 2
    |----------------|
    |----------------|
    |2---5---3---6---|
    |2---5---3---6---|
    |0---3---1---4---|
    |----------------|
    Riff 3
    |--------------------------------|
    |--------------------------------|
    |----------------3-2-------------|
    |3-2-----6-5-----3-2-----6-5-----|
    |3-2-----6-5-----1-0-----6-5-----|
    |1-0-000-4-3-000-----000-4-3-000-|
         ...     ...     ...     ...
    Riff 4a
    |-----------------------------|
    |-----------------------------|
    |-----------------------------|
    |3-2----------3-2-----6-5-----|
    |3-2----------3-2-----6-5-----|
    |1-0-00000000-1-0-000-4-3-000-|
         ........     ...     ...
    Riff 4b
    |-----------------------------|
    |-----------------------------|
    |---------------------3-2-----|
    |3-2----------3-2-----3-2-----|
    |3-2----------3-2-----1-0-----|
    |1-0-00000000-1-0-000-----000-|
         ........     ...     ...
    Fill
    |---------------------------|
    |---------------------------|
    |---------------------------|
    |7---9---5---7---5---4------|
    |7---9---5---7---5---4------|
    |5---7---3---5---3---2------|
    .   .   .   .   .
    Riff 5
    |--------------------------------------------|
    |--------------------------------------------|
    |--------------------------------------------|
    |------------------------------------2---3---|
    |------------------------------------2---3---|
    |2-2-2-5-2-2-2-2-2-5-2-2-2-2-2-5-2-2-0---1---|
    . . . . . . . . . . . . . . . . . .
    Riff 6
    |--------------------------------------------|
    |--------------------------------------------|
    |--------------------------------------------|
    |------------------------------------4---5---|
    |------------------------------------4---5---|
    |4-4-4-7-4-4-4-4-4-7-4-4-4-4-4-7-4-4-2---3---|
    . . . . . . . . . . . . . . . . . .
    Riff 7a
    |---------------------|
    |---------------------|
    |---------------------|
    |3-2------3-2---6-5---|
    |3-2------3-2---6-5---|
    |1-0------1-0---4-3---|
    Riff 7b
    |---------------------|
    |---------------------|
    |---------------3-2---|
    |3-2------3-2---3-2---|
    |3-2------3-2---1-0---|
    |1-0------1-0---------|
     

    Тональность:

    Это должно быть в ТОП-листе! - Топ-лист композиций



    Назад
    Рекомендуем посмотреть другие песни исполнителя «Six Feet Under»:

    • Комменты Fb ()
    • Комменты ВК



    Добавить в Избранное Браузера
    Сохранить здесь Очистить


    x

    0


    +
    -

    +
    -

    -

    Авторизация





    Зарегистрироваться

    M

    Дата и время

    • 07:39:58
       

    Социальные ссылки


    Наши приложения

    • Muzbank App Play Market
    • Muzbank Amazon App
    • Muzbank Bitcoin13igjuWJj2R4cHiyZqP7Q3ggVvfXE9j82Q