MUZBANK


МУЗЫКАЛЬНО-ИНФОРМАЦИОННЫЙ БАНК





SSkid Row • Monkey Bizness (аккорды и текст - chords & lyrics)


523

Print

Видео «Monkey Bizness (Skid Row)»

Видео клипы к песне подбираются автоматически сайтом youtube. Возможны некоторые несоответствия клипов песне.

↑ Спрятать рекламу ↑





BASS TAB 

RIFF:1                                   RIFF:2
G------------------------------------    G--------------------------------------
D------------------------------------    D----------2-3-2-0---------------------
A------------------------------------    A--------------------------------------
E---5-2-0-1-2-0-2-2-5-2-0-1-2-0-2-2--    E----2-2-2-----------2-2-2-2-2-2-0-1-2-

RIFF:3
G----------------------------
D---------4-----------4------
A----------------------------
E--2-2-2------2-2-2----------




Outside my window there`s a
Whole lot of trouble coming
The cartoon killers and the
Rag cover clones
Stack heels kicking rhythm
Of social circumcision
Can`t close the closet on
Shoe box full of bones

Kangaroo lady with her bourbon
in a pouch
Can`t afford the rental on
a bamboo couch
Collecting back her favors `cause her
well is running dry
I know her act is terminal,
But she ain`t gonna die

Slim intoxicado drinkinґ dime
store hooch
Is always in a circle with his
part-time pooch
Little creepy`s playing dollies in the
New York rain
Thinkin` Bowie`s just a knife
Ooh the pain

I ain`t seen the sun since I don`t
know when
The freaks come out at nine
And it`s twenty to ten
What`s this funk
That you call junk
To me it`s just monkey business

Blind man in the vox that will
probably die
The village kids laugh as they walk by
A psycho is on the edge of this human
garbage dump
And the vultures in the sewers
are telling
Him to jump

Into the fire from the frying pan
Tripping on his tounge
For a cool place to stand
Whenens this shade
That you`ve got it made
To me it`s just monkey business

Monkey business
Slippin` on the track
Monkey business
Jungle in black
Ain`t your business if I got
No monkey on my back

Monkey business
Slippin` on the track
Monkey business
Jungle in black
Ain`t your business
If I got
Monkey`s on my back

The vaseline gypsies and silicone souls
Dressed to the society
Hypocrite heartbeat and cheap alibis
Can`t get you by that monkey


Guitar tab:

    INTRO (x3)
E|----------------------------------------------------------------------|
B|----------------------------------------------------------------------|
G|--------2--4----2h4p2---------------------2--4----2h4p2---------------|
D|---2h4--2--4----2h4p2--4-2--42------2h4--2--4----2h4p2--4-2--42-----|
A|---2h4-----------------4-2--42------2h4-----------------4-2--42-----|
E|----------------------------------------------------------------------|

E|----------------------------------------------------------------------|
B|----------------------------------------------------------------------|
G|--------2--4----2h4p2---------2/4-------------------------------------|
D|---2h4--2--4----2h4p2--4-2--4-2/4---x--2------------------------------|
A|---2h4-----------------4-2--4-------x--2------------------------------|
E|---------------------------------------0------------------------------|


   Fill 1
                   p.m|-----|
E|----------------------------------------------------------------------|
B|----------------------------------------------------------------------|
G|------2---------------------------2-----------------------------------|
D|------2--4-2-3-4-2--2-3-4---------2--4-2-3-4-2--2h4p2h4p2-------------|
A|---------4-2-3-4-2--2-3-4------------4-2-3-4-2------------------------|
E|----------------------------------------------------------------------|

                   p.m|-----|   a.h  p.m|------------|
E|----------------------------------------------------------------------|
B|----------------------------------------------------------------------|
G|------2-----------------------4-----------------------4---------------|
D|------2--4-2-3-4-2--2-3-4------------4-2---2----------4--2------------|
A|---------4-2-3-4-2--2-3-4----------------4---4-3-2-------2------------|
E|---------------------------------------------------------0------------|


   Fill 2

    p.m|-------|   p.m|-------|        p.m|-------|  
p.m|------|
E|----------------------------------------------------------------------|
B|----------------------------------------------------------------------|
G|--------------2--------------4b5b4-2-------------2--------------------|
D|-----4-4-4-4--2-----4-4-4-4--4b5b4-2----4-4-4-4--2----4-4-4-4--2-3-4--|
A|-----4-4-4-4--------4-4-4-4-------------4-4-4-4-------4-4-4-4--2-3-4--|
E|----------------------------------------------------------------------|

     p.m|-------|   p.m|-------|        p.m|-------|  
p.m|------|
E|----------------------------------------------------------------------|
B|----------------------------------------------------------------------|
G|---------------2--------------4b5b4-2-------------2-------------------|
D|------4-4-4-4--2-----4-4-4-4--4b5b4-2----4-4-4-4--2----4-4-4-4--4-2---|
A|------4-4-4-4--------4-4-4-4-------------4-4-4-4-------4-4-4-4--4-2---|
E|------------------------------------------------------------------0---|


   Fill 3
                p.m|-----|
E|----------------------------------------------------------------------|
B|----------------------------------------------------------------------|
G|---2----------------------2---------2h4p2h4p2h4p2---------------------|
D|---2--4-2-3-4-2--2-3-4----2--4-2-3------------------------------------|
A|------4-2-3-4-2--2-3-4-------4-2-3------------------/9---------------|
E|----------------------------------------------------------------------|

Repeat Fill 2

    Fill 4
                    p.m|---|          p.m|---|        
      a.h
E|----------------------------------------------------------------------|
B|----------------------------------------------------------------------|
G|------4-----2-------------2--------------------2-----4-----4----------|
D|------4--2--2---2h4--4-4--2----x-x---2h4--4-4--2-----4--2-------------|
A|---------2------2h4--4-4-------x-x---2h4--4-4-----------2-------------|
E|---------0----------------------------------------------0-------------|


     p.m|---|             p.m|---|
E|----------------------------------------------------------------------|
B|----------------------------------------------------------------------|
G|-----------2--------------------2---4---------6-5-4---2-4-------------|
D|-2h4--4-4--2----x-x---2h4--4-4--2---4--2--7--6-5-4---2-4-2-x-x-4-4-4-|
A|-2h4--4-4-------x-x---2h4--4-4---------2--7--------------2-x-x-4-4-4-|
E|---------------------------------------0------------------0-----------|

E|-----------------------|
B|-----------------------|
G|-----------------------|
D|-----------------------|
A|----3-2-0-2-0----------|
E|--------------2-0------|


    Fill 5

E|----------------------------------------------------------------------|
B|----------------------------------------------------------------------|
G|----------------------------------------------------------------------|
D|---4-4-4---------------------4-4-4--------------------4-2---------2/4-|
A|---4-4-4---3--2--0-2-0-------4-4-4---3--2--0-2-0------4-2---------2/4-|
E|-----------------------2-0-----------------------2-0----0-------------|

Тональность:

Это должно быть в ТОП-листе! - Топ-лист композиций



Назад
Рекомендуем посмотреть другие песни исполнителя «Skid Row»:

  • Комменты Fb ()
  • Комменты ВК



Добавить в Избранное Браузера
Сохранить здесь Очистить


x

0


+
-

+
-

-

Авторизация





Зарегистрироваться

M

Дата и время

  • 22:42:27
     

Социальные ссылки


Наши приложения

  • Muzbank App Play Market
  • Muzbank Amazon App