MUZBANK



A MOST COMPLETE BANK OF MUSIC INFORMATION

МУЗЫКАЛЬНО-ИНФОРМАЦИОННЫЙ БАНК





SSkid Row • Youth Gone Wild (аккорды и текст - chords & lyrics)


795

Print

Видео «Youth Gone Wild (Skid Row)»

Видео клипы к песне подбираются автоматически сайтом youtube. Возможны некоторые несоответствия клипов песне.

↑ Спрятать рекламу ↑





intro
E|------------------------|
B|------------------------|
G|-------3-3--3-3---------|
D|-------1-1--1-1---------|
A|-------1-1--1-1---------|
E|------------------------|

E|------------------------|------------------------|
B|------------------------|------------------------|
G|-------5-3-0--2-3-0-----|------5-3-0--2-3-3------|
D|-5-----5-3-0--2-3-0-----|------5-3-0--2-3-1------|
A|-5----------------------|------------------------|
E|-3----------------------|------------------------|

------------------------|---------------------|
------------------------|---------------------|
-----5-3-0--2-3-3-------|---------------------|
-----5-3-0--2-3-1-------|--1p0-0-0------------| x2
------------------------|-----------1p0-0-0---|
------------------------|---------------------|

e|---------|
b|---------| 
g|---------|
d|--5------|  x1 just let it go for 4 bars
a|--5------|
e|--3------|


Chorus
e|---------|
b|---------|
g|--2---3*-|
d|--3---5*-|x2
a|---------|
e|---------|
* means to let ring for 2 measures



Since I was born they couldn't hold me down
Another misfit kid, another burned-out town

Never played by the rules I never really cared
My nasty reputation takes me everywhere

I look and see it's not only me
So many others have stood where I stand
We are the young so raise your hands

They call us problem child
We spend our lives on trial
We walk an endless mile
We are the youth gone wild
We stand and we won't fall
We're the one and one for all
The writing's on the wall
We are the youth gone wild

Boss screamin' in my ear about who I'm supposed to be
Getcha a 3-piece Wall Street smile and son you'll look just like me

I said Hey man, there's something that you oughta know.
I tell ya Park Avenue leads to Skid Row.

I look and see it's not only me
We're standin' tall ain't never a doubt
We are the young, so shout it out

They call us problem child
We spend our lives on trial
We walk an endless mile
We are the youth gone wild
We stand and we won't fall
We're the one and one for all
The writing's on the wall
We are the youth gone wild

They call us problem child
We spend our lives on trial
We walk an endless mile
We are the youth gone wild
We stand and we won't fall
We're the one and one for all
The writing's on the wall
We are the youth gone wild
We are the youth gone wild

*** All tab:

VERSE: 

e|------------------|---------------|---------------|-----------------|
B|------------------|---------------|---------------|-----------------|
G|--2--3*-----------|---------------|--2--3*--------|-----------------|
D|--3--5*-----------|---------------|--3--1*--------|-----------------|
A|------------------|---------------|---------------|-----------------|
E|------------------|---------------|---------------|-----------------|
		(* = let notes ring throughout 2nd bar)
 

e|------------------|---------------|---------------|-----------------|
B|------------------|---------------|---------------|-----------------|
G|--2--3*-----------|---------------|--2--3*--------|-----------------|
D|--3--5*-----------|---------------|--3--1*--------|-1p0-0-0---------|
A|------------------|---------------|---------------|---------1p0-0---|
E|------------------|---------------|---------------|-----------------|
		(* = let notes ring throughout 2nd bar)
 
PRE CHORUS:

e|---------------|------------------|----------------|-----------------|
B|---------------|------------------|----------------|-----------------|
G|---------------|------------------|----3p0--x----5-|-(w/ artif harm)-|
D|-3--3-------3--|-------3--------3-|-5--3p0--x--5-5-|-----------------|
A|-3--3-------3--|-------3--------3-|-5-------x--5---|--5--3-----------|
E|-1--1-1-1-1-1--|-1-1-1-1--1-1-1-1-|-3----------3---|--------6--5-----|
 

e|---------------|------------------|----------------|-----------------|
B|---------------|------------------|----------------|-----------------|
G|---------------|------------------|--8------7------|-----------------|
D|-3--3-------3--|-------3--------3-|--8------7------|-1p0-0-0---------|
A|-3--3-------3--|-------3--------3-|--6------5------|---------1p0-0---|
E|-1--1-1-1-1-1--|-1-1-1-1--1-1-1-1-|----------------|-----------------|
 
CHORUS:

e|------------------|---------------|---------------|-----------------|
B|------------------|---------------|---------------|-----------------|
G|----5-3-0--2-3-0--|-5-3-0--2-3-3--|-5-3-0--2-3-3--|-----------------|
D|-5--5-3-0--3-3-0--|-5-3-0--3-3-1--|-5-3-0--3-3-1--|-1p0-0-0---------|
A|-5----------------|---------------|---------------|---------1p0-0---|
E|-3----------------|---------------|---------------|-----------------|
 

e|------------------|---------------|---------------|-----------------|
B|------------------|---------------|---------------|-----------------|
G|----5-3-0--2-3-0--|-5-3-0--2-3-3--|-5-3-0--2-3-3--|-----------------|
D|-5--5-3-0--3-3-0--|-5-3-0--3-3-1--|-5-3-0--3-3-1--|-1p0-0-0---------|
A|-5----------------|---------------|---------------|---------1p0-0---|
E|-3----------------|---------------|---------------|-----------------|
 
	So let me hear ya get wild...
e|------------------|
B|------------------|
G|------------------|	 
D|--5---------------|
A|--5---------------|
E|--3---------------|


 
SOLO (over this rhythm) 
 
e|-----------------|-----------------|-----------------|-----------------|
B|-----------------|-----------------|-----------------|-----------------|
G|-----------------|-----------------|-----------------|-----------------|
D|-7-------------x-|-7-----------5-x-|-3-------------x-|-3-----------5-x-|
A|-7-7-7-7-7-7-7-x-|-7-7-7-7-7-7-5-x-|-3-3-3-3-3-3-3-x-|-3-3-3-3-3-3-5-x-|
E|-5-5-5-5-5-5-5-x-|-5-5-5-5-5-5-3-x-|-1-1-1-1-1-1-1-x-|-1-1-1-1-1-1-3-x-|
 
e|-----------------|-----------------|-----------------|-------------------|
B|-----------------|-----------------|-----------------|-------------------|
G|-----------------|-----------------|-----------------|-7-7---------------|
D|-7-------------x-|-7-----------5-x-|-3-----------3-x-|-7-7---------------|
A|-7-7-7-7-7-7-7-x-|-7-7-7-7-7-7-5-x-|-3-3-3-3-3-3-3-x-|-5-5-1p0-0-0-------|
E|-5-5-5-5-5-5-5-x-|-5-5-5-5-5-5-3-x-|-1-1-1-1-1-1-1-x-|-------------1p0-0-|



Solo 1
Guitar 1
|---------------------------------------|
|---------------------------------------|
|------------------------------12\------|
|------------------------------12\------|
|----harmonics-dropped-with-bar---------|
|---------------------------------------|
[ Tab from: http://www.guitaretab.com/s/skid-row/17407.html ]
|---------------------------------------|
|---------------------------------------|
|[12^(14)]---[12^(14)]~~~~~~~-----------|
|---------------------------------------|
|---------------------------------------|
|---------------------------------------|

|-10-11----10---------------------------------|
|-------13----13-11-10------------------------|
|----------------------10----10-[14^(16)r14]~~|
|-------------------------12------------------|
|---------------------------------------------|
|---------------------------------------------|

|-15-17-13-17-12-17-------------------------|
|-------------------15-17-13-17-12h13p12----|
|----------------------------------------14-|
|-------------------------------------------|
|-------------------------------------------|
|-------------------------------------------|

|-------17----19----20----20^(22)r20~~~-|
|-/17------17----17----17---------------|
|---------------------------------------|
|---------------------------------------|
|---------------------------------------|
|---------------------------------------|





Solo 2
Guitar 2
|---------------------------------------|
|---------------------------------------|
|-[4^(5)r4]p2-[4]~~~~~~-----------------|
|---------------------------------------|
|---------------------------------------|
|---------------------------------------|

|---------------------------------------|
|---------------------------------8^(10)|
|-5---7---5-[7^(9)r7]p5-5-7^(9)p5-------|
|---7---7-------------------------------|
|---------------------------------------|
|---------------------------------------|

|---5-----------------------------------|
|-----8-7-5-----------------------------|
|-----------8-7-5-8-7-5---7-5~~---------|
|-----------------------7---------------|
|---------------------------------------|
|---------------------------------------|

|--------------------------------------------|
|--------------------------------------------|
|--5^(6)-5^(7)r5p3---------------------------|
|--------------------------------------------|
|------------------3^(4)-3^(5)r3p1-3-3-3-1-0-|
|--------------------------------------------|

|---------------------------------------|
|---------------------------------------|
|---------------------------------------|
|-[5]\____/-\---------------------------|
|------------\**------------------------|
|---------------------------------------|
**Last note is picked then manipulated with bar




Outro

|---------------------------------------|
|---------------------------------------|
|-------------------------3-------------|
|-------------------------3-x-3--x-5----|
|-------------------------1-x-3--x-5----|
|-----------------------------1----3----|

|---------------------------------------|
|---------------------------------------|
|---------------------------------------|
|---------------------------------------|
|-------------------------1-0-----1-----|
|-----------------------------3-1-----0-|

|---------------------------------------|
|---------------------------------------|
|-0-----5--3--0--2--3--0-----5--3--0--2-|
|-0-----5--3--0--3--5--0-----5--3--0--3-|
|---------------------------------------|
|---------------------------------------|

|---------------------------------------|
|---------------------------------------|
|-3---8-----5--3--0--2--3---8-----------|
|-5---8-----5--3--0--3--5---8-----------|
|-----6---------------------6-----------|
|---------------------------------------|

|------------------------|
|------------------------|
|-5--3--0----------------|
|-5--3--0----------------|
|----------6-5-3---------|
|----------------6-6---5-|

|---------------------------------------|
|---------------------------------------|
|-0-----5--3--0--2--3--0-----5--3--0--2-|
|-0-----5--3--0--3--5--0-----5--3--0--3-|
|---------------------------------------|
|---------------------------------------|

|---------------------------------------|
|---------------------------------------|
|-3---8-----5--3--0--2--3---8-----------|
|-5---8-----5--3--0--3--5---8-----------|
|-----6---------------------6-----------|
|---------------------------------------|

|------------------------|
|------------------------|
|-5--3--0----------------|
|-5--3--0----------------|
|----------6-5-3---------|
|----------------6-6---5-|

|---------------------------------------|
|---------------------------------------|
|-0-----5--3--0--2--3--0-----5--3--0--2-|
|-0-----5--3--0--3--5--0-----5--3--0--3-|
|---------------------------------------|
|---------------------------------------|

|---------------------------------------|
|---------------------------------------|
|-3---8-----5--3--0--2--3---8-----------|
|-5---8-----5--3--0--3--5---8-----------|
|-----6---------------------6-----------|
|---------------------------------------|

|---------------|
|---------------|
|-5--3--0--3----|
|-5--3--0--3--3-|
|----------1--3-|
|-------------1-|

|---------------------------------------|
|---------------------------------------|
|-------5--3--0--2--3--0-----5--3--0--2-|
|-5-----5--3--0--3--5--0-----5--3--0--3-|
|-5-------------------------------------|
|-3-------------------------------------|

|---------------------------------------|
|---------------------------------------|
|-3---8-----5--3--0--2--3---8-----------|
|-5---8-----5--3--0--3--5---8-----------|
|-----6---------------------6-----------|
|---------------------------------------|

|------------------------3--|
|------------------------3--|
|-5--3--0----------------3--|
|-5--3--0----------------5--|
|----------6-5-3---------5--|
|----------------6-6---5-3--|


Тональность:

Это должно быть в ТОП-листе! - Топ-лист композиций



Назад
Рекомендуем посмотреть другие песни исполнителя «Skid Row»:

  • Комменты Fb ()
  • Комменты ВК



Добавить в Избранное Браузера
Сохранить здесь Очистить


x

0


+
-

+
-

-

Авторизация





Зарегистрироваться

M

Дата и время

  • 17:19:52
     

Социальные ссылки


Наши приложения

  • Muzbank App Play Market
  • Muzbank Amazon App
  • Muzbank Bitcoin13igjuWJj2R4cHiyZqP7Q3ggVvfXE9j82Q