MUZBANK



A MOST COMPLETE BANK OF MUSIC INFORMATION

МУЗЫКАЛЬНО-ИНФОРМАЦИОННЫЙ БАНК







    SSkillet • Savior (аккорды и текст - chords & lyrics)


    824

    Print

    Видео «Savior (Skillet)»

    Видео клипы к песне подбираются автоматически сайтом youtube. Возможны некоторые несоответствия клипов песне.

    ↑ Спрятать рекламу ↑



    Download


     
    
    
    #Skillet - Savior.
    #Tab done by Jim Tessier jim_tessier@msn.com
    #Song is copyrighted by Skillet and their record company. I did not wright this song.
    #D tuning (D,A,D,G,B,D). Chords used are D,E, F, C, Bb, G. 
    #Tabbed this using an Accustic guitar. Enjoy
    
    
    Accustic Intro
    
        D     A      C     G F D   A    C       G F     E 
    4/4
    D||-x--------------------------------------------------||
    B||-x--------------------------------------------------||
    G||*x----------------2-0------------------2-0---------*||
    D||*0-----2-3h-2---0---0-3-----2-3h-2---0---0-333-3-2-*||
    A||-0---0--------3-------3---0--------3-------333-3-2--||
    D||-0-0------------------3-0------------------333-3-2--||
    
    
    
    Electric - Heavy Distortion
    
        D    D   D   D   D Bb
    4/4
    D||-------------------------||
    B||-------------------------||
    G||*-------------------333-*||
    D||*00-x-0-x-0-x-0-x-0-333-*||
    A||-00-x-0-x-0-x-0-x-0-111--||
    D||-00-x-0-x-0-x-0-x-0------||
        pm ------pm-------
    
    
    Acustic
    
        D     A      C       G F D   A    C     G F     E 
    4/4
    D||-x--------------------------------------------------||
    B||-x--------------------------------------------------||
    G||*x----------------2-0------------------2-0---------*||
    D||*0-----2-3h-2---0---0-3-----2-3h-2---0---0-333-3-2-*||
    A||-0---0--------3-------3---0--------3-------333-3-2--||
    D||-0-0------------------3-0------------------333-3-2--||
    
    
    Electric - Chorus
    
        D    D   D   D  C   Bb
    4/4
    D||-------------------------||
    B||-------------------------||
    G||*----------------555-33-*||
    D||*00-x-00-x-00-x--555-33-*||
    A||-00-x-00-x-00-x--333-11--||
    D||-00-x-00-x-00-x----------||
    
    
    Electric - Heavy Distortion
    
        D    D   D   D   D Bb
    4/4
    D||-------------------------||
    B||-------------------------||
    G||*-------------------333-*||
    D||*00-x-0-x-0-x-0-x-0-333-*||
    A||-00-x-0-x-0-x-0-x-0-111--||
    D||-00-x-0-x-0-x-0-x-0------||
        pm ------pm-------
    
    
    Acustic
    
        D     A      C       G F D   A    C     G F     E 
    4/4
    D||-x--------------------------------------------------||
    B||-x--------------------------------------------------||
    G||*x----------------2-0------------------2-0---------*||
    D||*0-----2-3h-2---0---0-3-----2-3h-2---0---0-333-3-2-*||
    A||-0---0--------3-------3---0--------3-------333-3-2--||
    D||-0-0------------------3-0------------------333-3-2--||
    
    Electric - Chorus
    
        D    D   D   D  C   Bb
    4/4
    D||-------------------------||
    B||-------------------------||
    G||*----------------555-33-*||
    D||*00-x-00-x-00-x--555-33-*||
    A||-00-x-00-x-00-x--333-11--||
    D||-00-x-00-x-00-x----------||
    
    Electric
    
     
    D||-------------------||
    B||-------------------||
    G||*-----------------*||
    D||*-----------------*||
    A||-650-----6501030---||
    D||-----230-----------||
       PM-----------------
    
        C    Bb   C    Bb   D     
    D||-------------------------||
    B||-------------------------||
    G||*55x5-33x3-55x5-33x3-75h7||
    D||*55x5-33x3-55x5-33x3-----||
    A||-33x3-11x1-33x3-11x1-----||
    D||-------------------------||
    
    
        D  E  F  G  
    D||_xx-xx-xx-x--||
    B||_xx-xx-xx-x--||
    G||*xx-xx-xx-x-*||
    D||*00/22/33/5-*||
    A||-00/22/33/5--||
    D||-00/22/33/5--||
    
    
    Acustic
    
        D     A      C       G F D   A    C     G F     E 
    4/4
    D||-x--------------------------------------------------||
    B||-x--------------------------------------------------||
    G||*x----------------2-0------------------2-0---------*||
    D||*0-----2-3h-2---0---0-3-----2-3h-2---0---0-333-3-2-*||
    A||-0---0--------3-------3---0--------3-------333-3-2--||
    D||-0-0------------------3-0------------------333-3-2--||
    
    
    Electric - Chorus
    
        D    D   D   D  C   Bb
    4/4
    D||-------------------------||
    B||-------------------------||
    G||*----------------555-33-*||
    D||*00-x-00-x-00-x--555-33-*||
    A||-00-x-00-x-00-x--333-11--||
    D||-00-x-00-x-00-x----------||
    
    
    Electric - Heavy Distortion
    
        D    D   D   D   D Bb
    4/4
    D||-------------------------||
    B||-------------------------||
    G||*-------------------333-*||
    D||*00-x-0-x-0-x-0-x-0-333-*||
    A||-00-x-0-x-0-x-0-x-0-111--||
    D||-00-x-0-x-0-x-0-x-0------||
        pm ------pm-------
     

    Тональность:

    Это должно быть в ТОП-листе! - Топ-лист композиций



    Назад
    Рекомендуем посмотреть другие песни исполнителя «Skillet»:

    • Комменты Fb ()
    • Комменты ВК



    Добавить в Избранное Браузера
    Сохранить здесь Очистить


    x

    0


    +
    -

    +
    -

    -

    Авторизация





    Зарегистрироваться

    M

    Дата и время

    • 17:24:54
       

    Социальные ссылки


    Наши приложения

    • Muzbank App Play Market
    • Muzbank Amazon App