MUZBANK


МУЗЫКАЛЬНО-ИНФОРМАЦИОННЫЙ БАНК





SSkillet • The Last Night (аккорды и текст - chords & lyrics)


1322

Print

Видео «The Last Night (Skillet)»

Видео клипы к песне подбираются автоматически сайтом youtube. Возможны некоторые несоответствия клипов песне.

↑ Спрятать рекламу ↑





Intro: Bm   Gm   F#m (x2) 

You come to me with your scars on your wrist  
You tell me this will be the last night feeling like this 

 Bm  
I just came to say goodbye  
Gm  F#m                           E 
I didn't want you to see me cry, I'm fine 
        Bm        A5 
But I know it's a lie  
            Gm                Bm 
This is the last night you'll spend alone 
 D                         A5     
Look me in the eyes so I know you know 
   Gm       Bm      A5         Gm 
I'm everywhere you want me to be  
                       Bm 
The last night you'll spend alone  
 D                             A5 
I'll wrap you in my arms and I won't let go  
   Gm      Bm      A5         Gm 
I'm everything You need me to be  
Verse 2 intro: Bm  Gm  F#m 

(Bass only) 
Your parents say everything is your fault  
But they don't know you like I know you they don't know you at all  

  Bm 
I'm so sick of when they say  
 Gm  F#m                                 Em 
It's just a phase, you'll be o.k. you're fine  
         Gm       F#m 
But I know it's a lie  

(Chorus) 

{Bridge:}(Guitar optional but sounds good) 

e|----------------------------------------------------------------------- 
B|--------10-7---------10-7---------10-8-787-------------10-7-------10-7- 
G|-7-9-7--------7-9-7--------7-9-7-----------9-7---7-9-7------7-9-7------ 
D|----------------------------------------------------------------------- 
A|----------------------------------------------------------------------- 
E|----------------------------------------------------------------------- 

 |--------------------------------------15- 
 |-------10-8-787-------------------------- 
 |-7-9-7----------9-9-6-7---12-13--1213---- 
 |----------------------------------------- 
 |----------------------------------------- 
 |----------------------------------------- 


The night is so long when everything's wrong  
If you give me a chance  
I will help you hold on  
Tonight  
Tonight 

(Chorus)  

{Altro:} 
     Gm        Bm           D 
I won't let you say goodbye  
      A5            Gm  Bm A5 
And I'll be your reason why  
     Em                  Gm 
The last night away from me  

Away from me 


Тональность:

Это должно быть в ТОП-листе! - Топ-лист композиций



Назад
Рекомендуем посмотреть другие песни исполнителя «Skillet»:

  • Комменты Fb ()
  • Комменты ВК



Добавить в Избранное Браузера
Сохранить здесь Очистить


x

0


+
-

+
-

-

Авторизация





Зарегистрироваться

M

Дата и время

  • 02:01:07
     

Социальные ссылки


Наши приложения

  • Muzbank App Play Market
  • Muzbank Amazon App