MUZBANK



A MOST COMPLETE BANK OF MUSIC INFORMATION

МУЗЫКАЛЬНО-ИНФОРМАЦИОННЫЙ БАНК







    SSlapshock • Pang Makukulet (аккорды и текст - chords & lyrics)


    224

    Print

    Видео «Pang Makukulet (Slapshock)»

    Видео клипы к песне подбираются автоматически сайтом youtube. Возможны некоторые несоответствия клипов песне.

    ↑ Спрятать рекламу ↑



    Download


     
    
    
    Anino Mo Tab by Slapshock, 
    
    song:pangmakukulet
    album:ang unang album
    artist:wazzavee
    tabbed by:niСо
    any comments,E-mail me at leander_85@yahoo.com,text/call 09193216020
    intro:
    E|-------------------------|
    B|-------------------------|
    G|-------------------------|(4x)
    D|----8-8---5---8-8---3-5--|
    A|--3-6-6---3---6-6---1-3--|
    D|--0-0-0-0-0-0-0-0-0-0-1--|
    
    E|-----------------------------------|
    B|-----------------------------------|
    G|-----------------------------------|(2x)
    D|--------3-3-3-1-1-1-1-1-1-1-1-0-1--|
    A|--3-3-3----------------------------|
    D|-----------------------------------|
    
    stanza guitar I
    E|------------------------    ------------------------|
    B|------------------------    ------------------------|
    G|------------------------    ------------------------|
    D|--------3-3-3-1(pause)--(2x)--------1-1-1-0(pause)--|
    A|--3-3-3-----------------    --1-1-1-----------------|
    D|------------------------    ------------------------|
    guitar II
    E|----8----8---6---6---------|--3~~--1~~--|
    B|--8----8---6---6---6-(2x)--|--5~~--3~~--|
    G|---------------------------|--5~~--3~~--|(4x)
    D|---------------------------|--5~~--3~~--|
    A|---------------------------|--3~~--1~~--|
    D|---------------------------|--0~~--0~~--|
    
    chorus:(2x)
    lumalayo ako sa yo
    naglalaro sa isp mo
    lumalayo ako sa yo
    hinahanap ang anino mo
    
    guitar I
    E|--------------------------------------------------|
    B|--------------------------------------------------|
    G|--------------------------------------------------|
    D|--5-5-x-7-7-x-5-5-x-7-7-x-7-7-7-7-5-5-xx-7-7-x-x--|
    A|--3-3-x-5-5-x-3-3-x-5-5-x-5-5-5-5-3-3-xx-5-5-x-x--|
    D|--0-0-x-0-0-x-0-0-x-0-0-x-0-0-0-0-0-0-xx-0-0-x-x--|
    on 2nd time
    E|---------------------------------------------------|
    B|---------------------------------------------------|
    G|---------------------------------------------------|
    D|--5-5-xx-7-7-xx-5-5-xx-7-7-x-xxx-7-5-5-xx-7-7--xx--|
    A|--3-3-xx-5-5-xx-3-3-xx-5-5-x-xxx-5-3-3-xx-5-5--xx--|
    D|--0-0-xx-0-0-xx-0-0-xx-0-0-x-xxx-0-0-0-xx-0-0--xx--|
    
    guitar II(On 2nd time only)
    E|---------------|
    B|---------------|
    G|---------------|(3x)
    D|--5/87~-/85--|
    A|--3/65~-/63--|
    D|--0/0~-/0--|
    
    Intertlude(same as intro)
    stanza
    chorus
    Interlude
    bridge
    guitar I
    E|--------------------------------|
    B|--------------------------------|
    G|--------------------------------|
    D|--------------------------------|
    A|--/6-6-5-5-5-3-3-3-1-1p0h1-1-3--|
    D|--------------------------------|
    guitar II(same as stanza)
    
    (shout)
    E|-----------------|
    B|-----------------|
    G|-----------------|
    D|--5-8-7-10-8-12--|(2x)
    A|--3-6-5-8--6-10--|
    D|--0-0-0-0--0-0---|
    
    ang bawat lingon mo sa buhay
    E|--3------3------|
    B|--5------5------|
    G|--5---5--5---5--|
    D|--5-5----5-5----|
    A|--3------3------|
    D|--0------0------|
    
    sundan mo ang anino ko
    E|-------------------------------------------|
    B|-------------------------------------------|
    G|-------------------------------------------|
    D|--5-5-5-5-5-5~~-6-8-5--5-5-5-5-5-5-5--6-8--|
    A|--3-3-3-3-3-3~~-6-8-3--3-3-3-3-3-3-3--6-8--|
    D|--0-0-0-0-0-0~~-6-8-0--0-0-0-0-0-0-0--6-8--|
          . . . .            . . . .
    E|----------------------------------|
    B|----------------------------------|
    G|----------------------------------|
    D|--5-5-5-5-5-5-5-5--5-8-7-10-8-12--|
    A|--3-3-3-3-3-3-3-3--3-6-5-8--6-10--|
    D|--0-0-0-0-0-0-0-0--0-0-0-0--0-0---|
          (repeat chorus)
                end
    tabbed by:leander_85@yahoo.com
     

    Тональность:

    Это должно быть в ТОП-листе! - Топ-лист композиций



    Назад
    Рекомендуем посмотреть другие песни исполнителя «Slapshock»:

    • Комменты Fb ()
    • Комменты ВК



    Добавить в Избранное Браузера
    Сохранить здесь Очистить


    x

    0


    +
    -

    +
    -

    -

    Авторизация





    Зарегистрироваться

    M

    Дата и время

    • 06:38:44
       

    Социальные ссылки


    Наши приложения

    • Muzbank App Play Market
    • Muzbank Amazon App