MUZBANK



A MOST COMPLETE BANK OF MUSIC INFORMATION

МУЗЫКАЛЬНО-ИНФОРМАЦИОННЫЙ БАНК







    SSlashs Snakepit • Wild Horses (аккорды и текст - chords & lyrics)


    243

    Print

    Видео «Wild Horses (Slashs Snakepit)»

    Видео клипы к песне подбираются автоматически сайтом youtube. Возможны некоторые несоответствия клипов песне.

    ↑ Спрятать рекламу ↑



    Download


     
    
    
    Wild Horses
    Written by Mick Jagger and 
    Keith Richards
    Originally Recorded by The Rolling Stones
    
    
    
                              *Repeat the Am to G sequence
                               twice 
    G                         * Am
    -------------------------------------------------------
    -----------------------------15--15--15-~~------15--15-
    -----------------------------16--16--16-~~------16--16-
    -------------------------------------------------------
    -------------------------------------------------------
    -------------------------------------------------------
    
                                    G  *
    -------------------------------------------------------
    --15-----15--15--15s13--13--12--12~~~~~~---------------
    --16-----16--16--16s14--14--12--12~~~~~~---------------
    -------------------------------------------------------
    -------------------------------------------------------
    -------------------------------------------------------
    
    		     Bm 	
                          grad. bend
    -------------------------------------------------------
    -------------------------------------------15----------
    --14b16---(16)r14p12---14b16~~~~~-----(16)---(16)r14p12
    -------------------------------------------------------
    -------------------------------------------------------
    -------------------------------------------------------
    
    
    	   G 
    -------------------------------------------------------
    -------------------------------------------------------
    ---14------12--14--12~~~~~~-------14b16--r14p12--------
    -------14----------------------------------------------
    -------------------------------------------------------
    -------------------------------------------------------
    
    
         Bm					      G	
    -------------------------------------------------------
    ----------------------15-------------------------------
    --14b16~~~~~------(16)--(16)r14p12--14--12---14b16-----
    -------------------------------------------------------
    -------------------------------------------------------
    -------------------------------------------------------
    
    
    					Am
    -------------------------------------------------------
    --15~~~--15b17--15-12-15-12----------------13p12--13p12
    ---------------------------14b16r14p12-14~~------------
    -------------------------------------------------------
    -------------------------------------------------------
    -------------------------------------------------------
    
    
    	C
    -------------------------------------------------------
    -13p12-------------------------------------------------
    -------12-----------------------------12-14--(16)r14p12
    ----------12h14~~~~~-----------12h14-------------------
    ------------------------13h14--------------------------
    -------------------------------------------------------
    
    
         G					  D	  
    -------------------------------------------------------
    -----------------15------------------------------------
    --14b16~~~~~--------14b16--14b16--14-12----12h14~~~~~--
    ----------------------------------------14-------------
    -------------------------------------------------------
    -------------------------------------------------------
    
    
         Bm
    -------------------------15----------
    ----17b19--17b19~~~~~--------15b17---
    -------------------------------------
    -------------------------------------
    -------------------------------------
    -------------------------------------
    
        G
    -------------------------15------------------------------------------
    ---15~~~-12---15------------15------------------------12-15----------
    -----------------14b16--------14b16r14-12-------12-14------14b16--14-
    ------------------------------------------12h14----------------------
    ---------------------------------------------------------------------
    ---------------------------------------------------------------------
    
    
    	Bm
    -------------------------------------------------------
    ---12-------------12------12------12-----12------12----
    -------14b16~~~-----14b16---14b16---14b16--14b16---14b16
    -------------------------------------------------------
    -------------------------------------------------------
    -------------------------------------------------------
    
    
    			  G  
    -------------------------------------------------------
    -12----------------------------------------------------
    ---14b16--14b16r14p12-----12-----12------12------------
    ----------------------14------------12h14----12~~~~~---
    -------------------------------------------------------
    -------------------------------------------------------
    
    
    			Am
    -------------------------------------------------------
    --13s15-----13--12--13--12h13p12-----12----------------
    ---------------------------------14-------14--14~~~~---
    -------------------------------------------------------
    -------------------------------------------------------
    -------------------------------------------------------
    
    
                   C
    ---------------------------------12--------------------
    -------------------------12--15------15--13h15p13p12---
    ----12h14p12-----------------------------------------14
    --------------14~~~~~----------------------------------
    -------------------------------------------------------
    -------------------------------------------------------
    
    
    			G
    -------------------------------------------------------
    ---12--------------------------------------------------
    -------14b16r14--12--14b16~~~~~-------14b16r14--12-----
    -------------------------------------------------------
    -------------------------------------------------------
    -------------------------------------------------------
    
    					Bend 3/4 step on
    		   	D		17th fret... 
    ------------------------------------------17--15--17b19
    ------------------12-----------------------------------
    ----------12--14------14~~~~~--------------------------
    ---12h14-----------------------------------------------
    -------------------------------------------------------
    -------------------------------------------------------
    
    
       Am
    --17b19---17b19--17b19--17--15--15~~~~----15---17b18r17
    -------------------------------------------------------
    -------------------------------------------------------
    -------------------------------------------------------
    -------------------------------------------------------
    -------------------------------------------------------
    
    
    		C
    -17--15----15h17--15~~~----------------------------------
    --------17--------------15s17---13s15------------------
    ---------------------------------------14b16r14p12--14-
    -------------------------------------------------------
    -------------------------------------------------------
    -------------------------------------------------------
    
    
    	G			     F	
    -------------------------------------------------------
    ------------------------15--------15-------------------
    --12----12~~~---14--12-----14b16------14~~~~-----------
    -------------------------------------------------------
    -------------------------------------------------------
    -------------------------------------------------------
    
    
    		C
    -------------------------------------------------------
    -------------------------------------------------------
    --14b16r14p12-----12~~~~--------11h12p11s9~~~~----------
    ---------------14----------------------------------------
    -------------------------------------------------------
    -------------------------------------------------------
    
    
    					      Am
    -------------------------------------------------------
    -------------------------------------------------------
    --7h9p7s5~~~----5h7p5s4~~~~---5---4--5-----4-----------
    ----------------------------------------7------7--7~~~-
    -------------------------------------------------------
    -------------------------------------------------------
    
    
    			C
    -------------------------------------------------------
    -------------------------------------------------------
    --4-------5---4---7--5---5s9~~~~~---9--7--9--9s12~~~~--
    ------7------------------------------------------------
    -------------------------------------------------------
    -------------------------------------------------------
    
    
    G				F
    -------------------------------------------------------
    ----------12-13-15---12-13-15--12-13-15--13b15-13------
    --12--14-----------------------------------------------
    -------------------------------------------------------
    -------------------------------------------------------
    -------------------------------------------------------
    
    
    					C
    -------------------------------------------------------
    ---12h13p12-------12---------15------------------------
    --------------14------14b16-----16r14p12----14--12-----
    -----------------------------------------14------------
    -------------------------------------------------------
    -------------------------------------------------------
    
    
    -------------------------------------------------------
    -------------------------------------------------------
    ---------12----------------------------------12--14----
    --12h14-------------12---------------12--14------------
    -------------12h14------12s10--12s14-------------------
    -------------------------------------------------------
    
    			G
    -------------------------------------------------------
    --15---------------------------------------------------
    ------14b16-r14----12----14--12~~~~~-------------------
    ----------------------14-------------------------------
    -------------------------------------------------------
    -------------------------------------------------------
    
    Let ring out...
    ------3-------------------------------------------------
    --1-------0----------------------------------------------
    --------------2b4r2--0----------0-----------------------------
    ------------------------0--0h2----------0-------------------
    -----------------------------------0h2--------------------
    --------------------------------------------3-----------
     

    Тональность:

    Это должно быть в ТОП-листе! - Топ-лист композиций



    Назад
    Рекомендуем посмотреть другие песни исполнителя «Slashs Snakepit»:

    • Комменты Fb ()
    • Комменты ВК



    Добавить в Избранное Браузера
    Сохранить здесь Очистить


    x

    0


    +
    -

    +
    -

    -

    Авторизация





    Зарегистрироваться

    M

    Дата и время

    • 08:28:52
       

    Социальные ссылки


    Наши приложения

    • Muzbank App Play Market
    • Muzbank Amazon App