MUZBANK



A MOST COMPLETE BANK OF MUSIC INFORMATION

МУЗЫКАЛЬНО-ИНФОРМАЦИОННЫЙ БАНК







    SSlayer • Black Magic (аккорды и текст - chords & lyrics)


    210

    Print

    Видео «Black Magic (Slayer)»

    Видео клипы к песне подбираются автоматически сайтом youtube. Возможны некоторые несоответствия клипов песне.

    ↑ Спрятать рекламу ↑






     
    
    
    black magic (solo)
    album:show no mercy 
    slayer
    
    tabbed by Rudy Guzman
                                                   play 4 times
    e:|-------------------------------------------------------------|
    B:|-------------------------------------------------------------|
    G:|-------------------------------------------------------------|
    D:|-------------------------------------------------------------|
    A:|---------7-----------7-8-----------7-8-10-8-----8-7----------|
    E:|-0-0-0-0-----0-0-0-0-------0-0-0-0----------10---------------|
    
    
    
    e:------------------------|
    B:------------------------|
    G:------------------------|
    D:-14h15p14h15p14h15p14etc|
    A:------------------------|
    E:------------------------|
    
    
    solo 1
    e:----19b-19b-19b---19b-19b----19b--19b--19b--19b--19b--19--22b-|
    B:-22-22b-22b-22b---22b-22b----22b--22b--22b--22b--22b----------|
    G:--------------------------------------------------------------|
    D:--------------------------------------------------------------|
    A:--------------------------------------------------------------|
    E:--------------------------------------------------------------|
    
    
    e:-19-22-21-19-22-22-21-19-24-21-19-22-21-19-24-21-19-22-22-19-------|
    B:-------------------------------------------------------------22x/-|
    G:-------------------------------------------------------------------|
    D:-------------------------------------------------------------------|
    A:-------------------------------------------------------------------|
    E:-------------------------------------------------------------------|
    
    
             repeat 5 times                                      repeat 2 
    times                                                                                
    e:-18p15*-------18p15-18p15*---------------------------------*----------|
    B:------*-18p15------------*-18p15-15-18p15------------------*----------|
    G:------*------------------*----------------17-15-14-17-15-14*----------|
    D:------*------------------*---------------------------------*-17-15-14-|
    A:------*------------------*---------------------------------*----------|
    E:------*------------------*---------------------------------*----------|
    
    e:------------------------22-22-22-----------------------------------------|
    B:------------------------------------------22-22-22-21-21-21--------------|
    G:---------------------------------19-19-19--------------------22-22-22----|
    D:-------------------------------------------------------------------------|
    A:15-13-12-----------------------------------------------------------------|
    E:---------15-13-12-(12)--------------------------------------------------|
    
    
      
                  
    e:----------------------------------------------------------17----------------|
    B:----------------------------------------------17-20-19-17--------------------|
    G:-------------------19-(19)---20-17----17-20--------------------5h7p5h7p5etc-|
    D:-19-19-19-21-21-21------------------19---------------------------------------|
    A:-----------------------------------------------------------------------------|
    E:-----------------------------------------------------------------------------|
    
    e:-----------------------------------------------------------------15b/17b-|
    B:-------------------------------------15-15-15-17-17-17-18-18-18--18b/20b-|
    G:-5-7/12---14-14-14-15-15-15-17-17-17-------------------------------------|
    D:-------------------------------------------------------------------------|
    A:-------------------------------------------------------------------------|
    E:-------------------------------------------------------------------------|
    
    solo 2
    e:--------------------------------------------------------------------|
    B:--------------------------------------------------------------------|
    G:--------------------------------------------------------------------|
    D:--------------------------------------------------------------------|
    A:--------------------------------------------------------------------|
    E:-3-4-6-4-5-7-5-6-8-7-8-10-8-9-11-9-10-12-11-12-14-12-13-15-13-14-16-|
    
    
    
    e:-----------------------------------x---x-----------|
    B:-------------------------------x--x-------x-------|
    G:-------------------------------x--------------------|
    D:------------------14-17--x---------------------x---|
    A:---------14-15-17--------x---------------------x---|
    E:14-15-17---------------------------------------------|
    
    
    
    e:---------------------------------------------------------------|
    B:---------------------------------------------------------------|
    G:--------------------------------7-10-7----------7-10-7---------|
    D:-----5---5--7-5/975/7-10-7-10--------10-7-10---------10-7-10-|
    A:-7-----7-------------------------------------------------------|
    E:---------------------------------------------------------------|
    
                               bar
    e:----------------------------------------------------------|
    B:----------------------5AH---------------------------------|
    G:7--8-7------10-7------5AH---------------------------------|
    D:-------10-7------10-7------------2--2p0h2-3p2-------------|
    A:----------------------------------------------3p2p0-3p2p0-|
    E:----------------------------------------------------------|
    
    
    
                                                trem. bar
    e:------------------------------------------------------------------|
    B:------------------------------------------------------------------|
    G:-----------------------------------7h9p7h9p7h9p7h9p7h9p7h9p7h9etc-|
    D:-----------------------------7-9-9--------------------------------|
    A:----------5-----7p5---9p7--9--------------------------------------|
    E:-4----5h7---7p5-----7---------------------------------------------|
    
    
         bar            trem. bar
    e:------------------------------------------------------|
    B:-------------12AH-------------------------------------|
    G:-7h9---------12AH-------------------------------------|
    D:----------12------------------------------------------|
    A:------------------------------------------------------|
    E:------------------------------------------------------|
    
    
    
    e:------------------------------------------------------|
    B:-18-18-18-18-18-18-18-18-17h18-17-15-18-18-17-15-18-18|
    G:------------------------------------------------------|
    D:------------------------------------------------------|
    A:------------------------------------------------------|
    E:------------------------------------------------------|
    
    
    e:-----------------------------------------18-18-18b-|
    B:18-18-18-18-18-18-18-18-17-15-18-/17p15-----------|
    G:---------------------------------------------------|
    D:---------------------------------------------------|
    A:---------------------------------------------------|
    E:---------------------------------------------------|
    
    e:15-15-18p15-18p15-18p15-------------17-19-19-17-19-19-17|
    B:------------------------17-/18/19----------------------|
    G:--------------------------------------------------------|
    D:--------------------------------------------------------|
    A:--------------------------------------------------------|
    E:--------------------------------------------------------|
    
    e:17-22-22-17-17-19-19-17-19-17-22-22-17-17-19-19-17-19-17-22-22-|
    B:---------------------------------------------------------------|
    G:---------------------------------------------------------------|
    D:---------------------------------------------------------------|
    A:---------------------------------------------------------------|
    E:---------------------------------------------------------------|
    
    
    
    e:17-17-19-19-17-19-17-22-22-17-x-17-19-17-22-17-17-22-22-22b-22b|
    B:---------------------------------------------------------------|
    G:---------------------------------------------------------------|
    D:---------------------------------------------------------------|
    A:---------------------------------------------------------------|
    E:---------------------------------------------------------------|
    
    windows notepad txt
     

    Тональность:

    Это должно быть в ТОП-листе! - Топ-лист композиций



    Назад
    Рекомендуем посмотреть другие песни исполнителя «Slayer»:

    • Комменты Fb ()
    • Комменты ВК



    Добавить в Избранное Браузера
    Сохранить здесь Очистить


    x

    0


    +
    -

    +
    -

    -

    Авторизация





    Зарегистрироваться

    M

    Дата и время

    • 23:23:04
       

    Социальные ссылки


    Наши приложения

    • Muzbank App Play Market
    • Muzbank Amazon App