MUZBANK


МУЗЫКАЛЬНО-ИНФОРМАЦИОННЫЙ БАНК





SSlayer • Die by the sword (аккорды и текст - chords & lyrics)


253

Print

Видео «Die by the sword (Slayer)»

Видео клипы к песне подбираются автоматически сайтом youtube. Возможны некоторые несоответствия клипов песне.

↑ Спрятать рекламу ↑





Live by the sword and help to contain
The helpless minds of you all
Die by my hand in pools of blood
Clutch yourself as you fall
Mindless tyranny, forgotten victims
Children slaughtered in vain
Raping the maids, in which they serve
Only the words of the Lord

Die by the sword
Die by the sword

Satan watches all of us
Smiles as some do his bidding
Try to escape the grasp of my hand
And your life will no longer exist
Hear our cry, save us from
The Hell in which we live
We turn our heads toward the sky
And listen for the steel

Die by the sword
Die by the sword

Watch as flowers decay
On (the) cryptic life that died
The wisdom of the wizards
Is only a neurtured lie
Black knights of Hell’s domain
Walk upon the dead
Satanas sits upon
The blood on which he feeds

Die by the sword
Die by the sword

[Lyrics - Hanneman; Music - Hanneman]


/Guitar Tab/

Standard Tuning


 RIFF 1A INTRO x1

|KING
|-----------------|-----------------|-----------------|-----------------|
|-----------------|-----------------|-----------------|-----------------|
|-----------------|-----------------|-----------------|-----------------|
|-------------4/5-|-----------------|-------------4/5-|-----------------|
|-------------4/5-|-------------8---|-------------4/5-|-----8------10---|
|-0-000-0-000-----|-0-000-0-000-6---|-0-000-0-000-----|-0-0-6-----0-8---|
|   ...   ...         ...   ...         ...   ...       . .       .
|
|HANNEMAN
|-----------------|-----------------|-----------------|-----------------|
|-----------------|-----------------|-----------------|-----------------|
|-----------------|-----------------|-----------------|-----------------|
|-----------------|-----------------|-----------------|-----------------|
|-2---------------|-2-2-------------|-2-----2---------|-----------------|
|-0---------------|-0-0-------------|-0-----0---------|-----------------|
   x                   x               x     x


|BOTH
|-----------------|-----------------|-----------------|-----------------|
|-----------------|-----------------|-----------------|-----------------|
|-----------------|-----------------|-----------------|-----------------|
|-------------4/5-|-----------------|-------------4/5-|-----------------|
|-------------4/5-|-------------8---|-------------4/5-|-----8------10---|
|-0-000-0-000-----|-0-000-0-000-6---|-0-000-0-000-----|-0-0-6-----0-8---|
    ...   ...         ...   ...         ...   ...       . .       .



 RIFF 1 VERSE x2

|-----------------|-----------------|-----------------|-----------------|
|-----------------|-----------------|-----------------|-----------------|
|-----------------|-----------------|-----------------|-----------------|
|-------------4/5-|-----------------|-------------4/5-|-----------------|
|-------------4/5-|-------------8---|-------------4/5-|------------10---|
|-0-000-0-000-----|-0-000-0-000-6---|-0-000-0-000-----|-0-000-0-000-8---|
    ...   ...         ...   ...         ...   ...         ...   ...



 RIFF 2 BRIDGE x2

|KING
|-----------------|-----------------|-----------------|-----------------|
|-----------------|-----------------|-----------------|-----------------|
|-------------8\7-|-------------8\7-|-------------8\7-|-----------------|
|-------------8\7-|-------------8\7-|-------------8\7-|----10-------9---|
|-0-000-0-000-----|-0-000-0-000-----|-0-000-0-000-----|-0-0-8-----0-7---|
|-----------------|-----------------|-----------------|-----------------|
|   ...   ...          ...   ...        ...   ...       . .       .
|
|HANNEMAN
|-----------------|-----------------|-----------------|-----------------|
|-----------------|-----------------|-----------------|-----------------|
|-9---------------|12---------------|11---------------|----10-------9---|
|-7---------------|10---------------|-9---------------|----10-------9---|
|-----------------|-----------------|-----------------|-0-0-------0-----|
|-----------------|-----------------|-----------------|-----------------|
                                                        . .       .



 RIFF 3 CHORUS x2

|-----------------|-----------------|-----------------|-----------------|
|-----------------|-----------------|-----------------|-----------------|
|-----------------|-----------------|-----------------|-----------------|
|-----------------|-----------------|-----------------|-7---6-----------|
|-3-2-------------|-3-2-------------|-3-2-------------|-5---4---8---7---|
|-----3-2-5-3-2-0-|-----3-2-5-3-2-0-|-----3-2-5-3-2-0-|---------6---5---|
  . . . . . . . .   . . . . . . . .   . . . . . . . .



 RIFF 1 VERSE x2

 RIFF 2 BRIDGE x2

 RIFF 3 CHORUS x2


 FILL 1

|-----------------|
|-----------------|
|-----------------|
|-5---4-----------|
|-3---2---5---4---|
|---------3---2---|




 FILL 2 x4

|-----------------|
|-----------------|
|-----------------|
|-----------------|
|-2-2-2-2-2-2-2-2-|
|-0-0-0-0-0-0-0-0-|
  . . . . . . . .



 RIFF 4 INTERLUDE x2

|KING
|---------------------------------|---------------------------------|
|---------------------------------|---------------------------------|
|---------------------------------|---------------------------------|
|-------------4------------4-3----|--------------------------5--10--|
|-2-----5-----2------------2-1----|-2-----5-----3------------3---8--|
|-0-0-0-3-0-0----------0-0--------|-0-0-0-3-0-0-1--------0-0---0----|
|   . .   . .          . .            . .   . .          . .   .
|
|HANNEMAN
|---------------------------------|-------------------------15b-15\-|
|---------------------------------|-------------------------18b-18\-|
|---------------------------------|---------------------------------|
|-------------4------------4-3----|---------------------------------|
|-2-----5-----2------------2-1----|-2-----5-----3-------------------|
|-0-0-0-3-0-0----------0-0--------|-0-0-0-3-0-0-1-------------------|
    . .   . .          . .            . .   . .


|KING
|---------------------------------|---------------------------------|
|---------------------------------|---------------------------------|
|---------------------------------|---------------------------------|
|-------------4------------4-3----|--------------------------5--10--|
|-2-----5-----2------------2-1----|-2-----5-----3------------3---8--|
|-0-0-0-3-0-0----------0-0--------|-0-0-0-3-0-0-1--------0-0---0----|
|   . .   . .          . .            . .   . .          . .   .
|
|HANNEMAN                    A.H.
|---------------------------------|---------------------------------|
|---------------------------------|---------------------------------|
|---------------------------------|---------------------------------|
|-------------4------------4------|---------------------------------|
|-2-----5-----2------------2-1b^--|-2-----5-----3-------------------|
|-0-0-0-3-0-0----------0-0--------|-0-0-0-3-0-0-1--------x\\\\\\\\--|
    . .   . .          . .            . .   . .



 SOLO 1 HANNEMAN
    BAR        BAR       BAR
|-15\/\/\/\\--------------------------------------|
|-18\/\/\/\\-----------23//\/\/\\/\\/\\/\\//\//\--|
|-------------------------------------------------|
|-------------------------------------------------|
|-------------------------------------------------|
|-------------0\\\\-------------------------------|

  BAR/\/\/\/\/\/\/\/\/\/\/\/\/\/\/\/\/\/\/\/\/\/\/\  N.H. BAR
|----------------------------------------------------------------------|
|----------------------------------------------------------------------|
|-0h9p7p6p0h9p7p6p0h9p7p6p0h9p7p6p0h9p7p6p0h9p7p6p0--5///\/\/\/\//\\\--|
|----------------------------------------------------------------------|
|----------------------------------------------------------------------|
|----------------------------------------------------------------------|

  BAR/\/\/\/\/\/\/\/\/\/\/\  BAR    N.H. BAR
|---------------------------------------------|
|---------------------------------------------|
|---------------------------------------------|
|---------------------------------------------|
|-0h2p1p0h2p1p0h2p1p0h2p1p0-0\\\\---7\/\/\\\\-|
|---------------------------------------------|

    BAR         BAR       BAR         BAR     N.H. BAR
|-------------21//\/\/\-22//\/\/\\--------------------------|
|-21///\/\/\------------------------21//\/\\--24\\\\\\\\----|
|-----------------------------------------------------------|
|-----------------------------------------------------------|
|-----------------------------------------------------------|
|-----------------------------------------------------------|




 RIFF 4A x4 UNDER SOLO 1

|---------------------------------|---------------------------------|
|---------------------------------|---------------------------------|
|---------------------------------|---------------------------------|
|-------------4------------4-3----|--------------------------5--10--|
|-2-----5-----2------------2-1----|-2-----5-----3------------3---8--|
|-0-0-0-3-0-0----------0-0--------|-0-0-0-3-0-0-1--------0-0---0----|
    . .   . .          . .            . .   . .          . .   .



 RIFF 5 INTERLUDE x1

|KING
|-------------------------------------|-------------------------------------|
|-------------------------------------|-------------------------------------|
|-------------------------------------|-------------------------------------|
|----8--7-----------------------------|----8--7-----------------------------|
|-------------8--7-----8-10-----8--7--|-------------8--7-----8-10-----------|
|-0--------0--------0--------0--------|-0--------0--------0--------0--8--7--|
| .        .        .        .          .        .        .        .
|
|HANNEMAN
|-------------------------------------|-------------------------------------|
|-------------------------------------|-------------------------------------|
|-------------------------------------|-------------------------------------|
|-------------------------------------|-4-----------------------------------|
|-2-----------------------------------|-2-----------------------------------|
|-0-----------------------------------|-------------------------------------|



|KING
|-------------------------------------|-------------------------------------|
|-------------------------------------|-------------------------------------|
|-------------------------------------|-------------------------------------|
|----8--7-----------------------------|----8--7-----------------------------|
|-------------8--7-----8-10-----8--7--|-------------8--7-----8-10-----------|
|-0--------0--------0--------0--------|-0--------0--------0--------0--8--7--|
| .        .        .        .          .        .        .        .
|
|HANNEMAN
|-------------------------------------|-------------------------------------|
|-------------------------------------|-------------------------------------|
|-------------------------------------|-------------------------------------|
|-3-----------------------------------|-------------------------------------|
|-1-----------------------------------|-3-----------------------------------|
|-------------------------------------|-1-----------------------------------|



|KING
|-------------------------------------|-------------------------------------|
|-------------------------------------|-------------------------------------|
|-------------------------------------|-------------------------------------|
|----8--7-----------------------------|----8--7-----------------------------|
|-------------8--7-----8-10-----8--7--|-------------8--7-----8-10-----------|
|-0--------0--------0--------0--------|-0--------0--------0--------0--8--7--|
| .        .        .        .          .        .        .        .
|
|HANNEMAN
|-------------------------------------|-------------------------------------|
|-------------------------------------|-------------------------------------|
|-------------------------------------|-------------------------------------|
|-------------------------------------|10-----------------------------------|
|-4-----------------------------------|-8-----------------------------------|
|-2-----------------------------------|-------------------------------------|



|KING
|-------------------------------------|-------------------------------------|
|-------------------------------------|-------------------------------------|
|-------------------------------------|-------------------------------------|
|----8--7-----------------------------|----8--7-----------------------------|
|-------------8--7-----8-10-----8--7--|-------------8--7-----8-10-----------|
|-0--------0--------0--------0--------|-0--------0--------0--------0--8--7--|
| .        .        .        .          .        .        .        .
|
|HANNEMAN
|-------------------------------------|-------------------------------------|
|-------------------------------------|-------------------------------------|
|-------------------------------------|-------------------------------------|
|12-----------------------------------|-------------------------------------|
|10-----------------------------------|-2-----------------------------------|
|-------------------------------------|-0-----------------------------------|



 RIFF 5A INTERLUDE x2

|KING
|-------------------------------------|-------------------------------------|
|-------------------------------------|-------------------------------------|
|-------------------------------------|-------------------------------------|
|----8--7-----------------------------|----8--7-----------------------------|
|-------------8--7-----8-10-----8--7--|-------------8--7-----8-10-----------|
|-0--------0--------0--------0--------|-0--------0--------0--------0--8--7--|
| .        .        .        .          .        .        .        .
|
|HANNEMAN
|-------------------------------------|-------------------------------------|
|---11-10-----------------------------|---11-10-----------------------------|
|------------10--9----10-12----10--9--|------------10--9----10-12-----------|
|-------------------------------------|------------------------------10--9--|
|-------------------------------------|-------------------------------------|
|-0--------0--------0--------0--------|-0--------0--------0--------0--------|
  .        .        .        .          .        .        .        .



 SOLO 2 KING

|-------------------------------|--------------------------------------------|
|-------------------------------|--------------------------------------------|
|-------------------------------|-----------------------5---5-7-5-7-7fb^^^r--|
|---------------5---------------|-----------5---5-7-5-7---7------------------|
|-7b^^--5-7b^^----7b^^--5-7b^^--|---5-7-5-7---7------------------------------|
|-------------------------------|-7------------------------------------------|


|-------------------------------------------------------------------------|
|-20-12h15-20-12h15-20-12h15-20-12h15-20-12h15-20-12h15-20-12h15-20-12h15-|
|-------------------------------------------------------------------------|
|-------------------------------------------------------------------------|
|-------------------------------------------------------------------------|
|-------------------------------------------------------------------------|
   T        T        T        T        T        T        T        T

|-------------------------------------------------------------------------|
|-20-12h15-20-12h15-20-12h15-20-12h15-20-12h15-20-12h15-20-12h15-20-12h15-|
|-------------------------------------------------------------------------|
|-------------------------------------------------------------------------|
|-------------------------------------------------------------------------|
|-------------------------------------------------------------------------|
   T        T        T        T        T        T        T        T

|-19-15h18-19-15h18-19-15h18-19-15h18-19-15h18-19-15h18-19-15h18-19-15h18-|
|-------------------------------------------------------------------------|
|-------------------------------------------------------------------------|
|-------------------------------------------------------------------------|
|-------------------------------------------------------------------------|
|-------------------------------------------------------------------------|
   T        T        T        T        T        T        T        T

|-22-15h18-22-15h18-22-15h18-22-15h18-22-15h18-22-15h18-22-15h18-22-15h18-|
|-------------------------------------------------------------------------|
|-------------------------------------------------------------------------|
|-------------------------------------------------------------------------|
|-------------------------------------------------------------------------|
|-------------------------------------------------------------------------|
   T        T        T        T        T        T        T        T

|-15fb^--15b^^--18-16-15--------15b^^--15-16-18-16-15-|
|-18fb^--18b^^-----------18-17--18b^^-----------------|
|-----------------------------------------------------|
|-----------------------------------------------------|
|-----------------------------------------------------|
|-----------------------------------------------------|


|-------------------------------------------------------|
|-18-17-15-18-17-15-------------------------------------|
|-------------------18-16-15-18-16-15-------------------|
|-------------------------------------17-15-14----------|
|----------------------------------------------16b\\\\--|
|-------------------------------------------------------|


|------------------------------------------------------------------------|
|---------------------------------------------------------------12-14-15-|
|---------------------------12-13-15-------------------12-13-15----------|
|------------------11-12-14-------------------11-12-14-------------------|
|---------10-11-13-------------------10-11-13----------------------------|
|-9-10-12----------------------------------------------------------------|


|----------------------------------------------|
|-17-12h15-19-12h15-17-12h15-19-12h15-17-12h15-|
|----------------------------------------------|
|----------------------------------------------|
|----------------------------------------------|
|----------------------------------------------|
   T        T        T        T        T

|---------------------------------------------|
|-19-12h15-17-12h15-19-12h15/17fb^--17b^^^----|
|---------------------------------------------|
|---------------------------------------------|
|---------------------------------------------|
|---------------------------------------------|
   T        T        T



 RIFF 2A x4 UNDER SOLO 2

|-----------------|-----------------|-----------------|-----------------|
|-----------------|-----------------|-----------------|-----------------|
|-----------------|-----------------|-----------------|-----------------|
|-------------8\7-|-------------8\7-|-------------8\7-|-----------------|
|-------------8\7-|-------------8\7-|-------------8\7-|----10-------9---|
|-0-000-0-000-----|-0-000-0-000-----|-0-000-0-000-----|-0-0-8-----0-7---|
    ...   ...         ...   ...         ...   ...       . .       .



 SOLO 3 HANNEMAN

|-0-12-0-12-13-15-13-12-13-12----0-12-0-12-13-15-13-12-13-12----|
|-----------------------------15-----------------------------15-|
|---------------------------------------------------------------|
|---------------------------------------------------------------|
|---------------------------------------------------------------|
|---------------------------------------------------------------|


|-0-12-0-12-13-15-13-12--------------------------------------------|
|-----------------------15-14-12-15-14-12--------------------------|
|------------------------------------------15-13-12-15-13-12-------|
|------------------------------------------------------------14b^^-|
|------------------------------------------------------------------|
|------------------------------------------------------------------|


|--------------------------------------------------------------------|
|-/13b^^-------16b^^--------14b^^------------------------------------|
|-/15b^^-15b^--18b^^-18fb^--16b^^-16b^--------9-12-10-9-10-9---------|
|----------------------------------------9-12----------------12-9b^--|
|--------------------------------------------------------------------|
|--------------------------------------------------------------------|


|-------------------------------------------------------------------------|
|-19-12h15-19-12h15-19-12h15-19-12h15-19-12h15-19-12h15-19-12h15-19-12h15-|
|-------------------------------------------------------------------------|
|-------------------------------------------------------------------------|
|-------------------------------------------------------------------------|
|-------------------------------------------------------------------------|
   T        T        T        T        T        T        T        T

|-------------------------------------------------------------------------|
|-20-12h15-20-12h15-20-12h15-20-12h15-20-12h15-20-12h15-20-12h15-20-12h15-|
|-------------------------------------------------------------------------|
|-------------------------------------------------------------------------|
|-------------------------------------------------------------------------|
|-------------------------------------------------------------------------|
   T        T        T        T        T        T        T        T

|-------------------------------------------------------------------------|
|-19-12h14-19-12h14-19-12h14-19-12h14-19-12h14-19-12h14-19-12h14-19-12h14-|
|-------------------------------------------------------------------------|
|-------------------------------------------------------------------------|
|-------------------------------------------------------------------------|
|-------------------------------------------------------------------------|
   T        T        T        T        T        T        T        T

|--------------------|
|-/13-12-------------|
|--------12-11\\\----|
|--------------------|
|--------------------|
|--------------------|


|-2-3-5-3-2--------------------------------------------------------|
|-----------5-3-2-5-3-2--------------------------------------------|
|-----------------------5-4-2-4b^-4b^--2-4-5-4-2-------------------|
|------------------------------------------------5-4-2-4b^---------|
|----------------------------------------------------------3p2b^^--|
|------------------------------------------------------------------|


|--------------------------------------------------------|
|--------------------------------------------------------|
|---------------9-10-12-9-10-12-9/12fb^^^^^^^^^^r\\\\----|
|-8-9-11-8-9-11------------------------------------------|
|--------------------------------------------------------|
|--------------------------------------------------------|



 RIFF 6 x2 UNDER SOLO 3

|-----------------|-----------------|-----------------|-----------------|
|-----------------|-----------------|-----------------|-----------------|
|-----------------|-----------------|-----------------|-----------------|
|-9-----9---------|12----12---------|11----11---------|-----------------|
|-7-----7---------|10----10---------|-9-----9---------|----10-------9---|
|-----------------|-----------------|-----------------|-----8-------7---|



|-----------------|-----------------|-----------------|-----------------|
|-----------------|-----------------|-----------------|-----------------|
|-----------------|-----------------|-----------------|-----------------|
|-----------------|-----------------|-----------------|-----5-------4---|
|-2-----2---------|-5-----5---------|-4-----4---------|-----3-------2---|
|-0-----0---------|-3-----3---------|-2-----2---------|-----------------|



 RIFF 1C INTRO x2

|-----------------|-----------------|-----------------|-----------------|
|-----------------|-----------------|-----------------|-----------------|
|-----------------|-----------------|-----------------|-----------------|
|-------------4/5-|-----------------|-------------4/5-|-----------------|
|-------------4/5-|-------------8---|-------------4/5-|-----8------10---|
|-0-000-0-000-----|-0-000-0-000-6---|-0-000-0-000-----|-0-0-6-----0-8---|
    ...   ...         ...   ...         ...   ...       . .       .


 RIFF 3 CHORUS x2

 FILL 1


 FILL 3

|-----------------|
|-----------------|
|-----------------|
|-7---6-----------|
|-5---4---8---7---|
|---------6---5---|


 FILL 1

 ENDING

|-----------------| 
|-----------------| 
|-----------------|
|-5---4-----------| 
|-3---2---5---4---| 
|---------3---2---| 

|-----------------|
|-----------------|
|-----------------|
|-7---6-----------|
|-5---4---8---7---|
|---------6---5---|

|-------------------|
|-------------------|
|-------------------|
|-5---4-------------|
|-3---2---5---4---2-|
|---------3---2---0-|


|----------|
|----------|
|----------|
|----------|
|-2--------|
|-0--------|
      x

Тональность:

Это должно быть в ТОП-листе! - Топ-лист композиций



Назад
Рекомендуем посмотреть другие песни исполнителя «Slayer»:

  • Комменты Fb ()
  • Комменты ВК



Добавить в Избранное Браузера
Сохранить здесь Очистить


x

0


+
-

+
-

-

Авторизация





Зарегистрироваться

M

Дата и время

  • 10:41:41
     

Социальные ссылки


Наши приложения

  • Muzbank App Play Market
  • Muzbank Amazon App