MUZBANK



A Most Complete Bank Of Music Information

МУЗЫКАЛЬНО-ИНФОРМАЦИОННЫЙ БАНК








    SSlayer • Disciple (аккорды и текст - chords & lyrics)


    281

    Print

    Видео «Disciple (Slayer)»

    Видео клипы к песне подбираются автоматически сайтом youtube. Возможны некоторые несоответствия клипов песне.

    ↑ Спрятать рекламу ↑



    Download


     
    
    Tune down 1.5 steps 
    
    
    Riff 1 (0:00-0:01)
    |----------------|
    |----------------|
    |----------------|
    |----------------|
    |-5-2--5-8--5-2--|
    |-3-0--3-6--3-0--|
    
    
    Riff 2  (0:02-0:12) (1:06-1:16)        
    p.m......     play 8x
    |----------------|
    |----------------|
    |----------------|
    |----------9-----|
    |------------8-7-|
    |-000-000--------|
    
    
    Walkback (p.m. on A string)
    |-------------------|
    |-------------------|
    |-------------------|
    |-9-----8-----7-----|
    |---8-7---7-6---6-5-|
    |-------------------|
    
    Riff 3 (0:14-0:29) (0:40-0:56)
    p.m...............
    |-----------------|
    |-----------------|
    |-----------------|
    |-----------------|
    |-----------------|
    |-3-3-2-0-3-4-3-0-|
    
    Chorus 1 (0:30-0:35)
    Gtr. 1
    p.m.....................................
    |---------------------------------------|
    |---------------------------------------|
    |---------------------------------------|
    |---------------------------------------|
    |---------------------------------------|
    |-000-000---000-000---000-000---000-000-|
    |                                       |
    |Gtr. 2                                 |
    |(w/ fast chorus/detune type effect)    |
    |---------------------------------------|
    |---------------------------------------|
    |-8b~~~~8b~~~~8b~~~~8b~~~~8b~~~~8b~~~~~-|
    |---------------------------------------|
    |---------------------------------------|
    |---------------------------------------|
    
    Riff 4 (0:35-0:40) (1:16-1:28) (2:19-2:28)
    p.m...............
    |-----------------|
    |-----------------|
    |-----------------|
    |-----------------|
    |-----------------|
    |-1-1/4-4-000-000-|
    
    Chorus 2 (0:56-1:06)
    Gtr. 1
    p.m.............................................................................
    |---------------------------------------|---------------------------------------|
    |---------------------------------------|---------------------------------------|
    |---------------------------------------|---------------------------------------|
    |---------------------------------------|---------------------------------------|
    |---------------------------------------|---------------------------------------|
    |-000-000---000-000---000-000---000-000-|-000-000---000-000---000-000---000-000-|
    |                                       |                                       |
    |Gtr. 2                                 |                                       |
    |p.m....................................|(w/ fast chorus/detune type effect)    |
    |---------------------------------------|---------------------------------------|
    |---------------------------------------|---------------------------------------|
    |---------------------------------------|-8b~~~~8b~~~~8b~~~~8b~~~~8b~~~~8b~~~~~-|
    |---------------------------------------|---------------------------------------|
    |---------------------------------------|---------------------------------------|
    |-0-0-0-0-0-0-0-0-0-0-0-0-0-0-0-0-0-0-0-|---------------------------------------|
    
    Solo (1:16-1:28)
      ph  ph
    |-19^-19^-16161617191716-1414151715141514----------------------------|
    |------------------------------------------1714141517171514----------|
    |-----------------------------------------------------------161416~/-|
    |--------------------------------------------------------------------|
    |--------------------------------------------------------------------|
    |--------------------------------------------------------------------|
    
    w/wah
    |-----------------------------------------------------141415171514------|
    |---------------------------------------------141517-------------171514-|
    |--------------------------14-----1415--141517--------------------------|
    |--------14----1415--141517---1517----17--------------------------------|
    |--141517--1517----17---------------------------------------------------|
    |-----------------------------------------------------------------------|
    
    |----------------------------|
    |----------------------------|
    |-161416~-16~-16~-16/--------|
    |----------------------------|
    |----------------------------|
    |-----------------------19//-|
    
    1st Breakdown (1:29-1:38) (2:06-2:19) 
    (32nd notes throughout I believe)
    p.m.........................
    |---------------------------|
    |---------------------------|
    |---------------------------|
    |---------------------------|
    |---------------------------|
    |-3-0-3-0-3-2---3-0-3-0-3-6-|
    
    Riff 5 (1:38-1:45) (1:47-1:54)
    p.m..............
    |----------------|
    |----------------|
    |----------------|
    |----------------|
    |-----------7777-|
    |-000000000------|
    
    Riff 6 (1:45-1:47) (1:54-1:56)
    p.m.....................
    |-----------------------|
    |-----------------------|
    |-----------------------|
    |-----------------------|
    |-----------------------|
    |-55555-44444-0000-11111|
    
    Riff 7 (I never said......) (1:56-2:06) (2:28-2:38)
    p.m......................................
    |---------------------------------------|
    |---------------------------------------|
    |---------------------------------------|
    |---------------------------------------|
    |---------------------------------------|
    |-0000-3333-22222-0000-22-333-7777-6666-|
    
    Riff 8 (2:38-2:51)     
    |----------------------------------|
    |----------------------------------|
    |-------------------------fdbk-----|
    |----------------------------------|
    |--2--5--4--2-4-5--9--8----(8)-----|
    |--0--3--2--0-2-3--7--6----(6)-----|
    
    Breakdown 2 (2:52-3:05)
    part 1 
    p.m....................................
    |--------------------------------------|
    |--------------------------------------|
    |--------------------------------------|
    |--------------------------------------|
    |--------------------------------------|
    |--3-3-3--6-6-6--2-2-2-2-2-2-2-2-2-2-2-|
    
    part 2
    p.m...................................
    |-------------------------------------|
    |-------------------------------------|
    |-------------------------------------|
    |-------------------------------------|
    |-------------------------------------|
    |--3-3-3--6-6-6--5-5-5--2-2-2-2-2-2-2-|
    
    part 3
    p.m.....................................
    |--------------------------------------|
    |--------------------------------------|
    |--------------------------------------|
    |--------------------------------------|
    |--------------------------------------|
    |--3-3-3--6-6-6--5-5-5--6-6-6--2-2-2-2-|
    
    part 4
    p.m....................................
    |--------------------------------------|
    |--------------------------------------|
    |--------------------------------------|
    |--------------------------------------|
    |--------------------------------------|
    |--3-3-3--6-6-6--2-2-2-2-2-2-2-2-2-2-2-|
    
    Riff 9 (3:05-3:32)
    
    part 1
    |--------------------------------------|
    |--------------------------------------|
    |--------------------------------------|
    |--------------------------------------|
    |--5-5-5--8-8-8--4-4-4-4-4-4-4-4-4-4-4-|
    |--3-3-3--6-6-6--2-2-2-2-2-2-2-2-2-2-2-|
    
    part 2
    |-------------------------------------|
    |-------------------------------------|
    |-------------------------------------|
    |-------------------------------------|
    |--5-5-5--8-8-8--7-7-7--4-4-4-4-4-4-4-|
    |--3-3-3--6-6-6--5-5-5--2-2-2-2-2-2-2-|
    
    part 3
    |--------------------------------------|
    |--------------------------------------|
    |--------------------------------------|
    |--------------------------------------|
    |--5-5-5--8-8-8--7-7-7--8-8-8--4-4-4-4-|
    |--3-3-3--6-6-6--5-5-5--6-6-6--2-2-2-2-|
    
    part 4          p.m.................(pm last time only)
    |--------------------------------------|
    |--------------------------------------|
    |--------------------------------------|
    |--------------------------------------|
    |--5-5-5--8-8-8--4-4-4-4-4-4-4-4-4-4-4-|
    |--3-3-3--6-6-6--2-2-2-2-2-2-2-2-2-2-2-|
     

    Тональность:

    Нашли ошибку?



    Назад
    Рекомендуем посмотреть другие песни исполнителя «Slayer»:

    • Комменты Fb ()
    • Комменты ВК



    Добавить в Избранное Браузера
    Сохранить здесь Очистить


    x

    0


    +
    -

    +
    -

    -

    Авторизация





    Зарегистрироваться

    M

    Дата и время

    • 06:46:54
       

    Социальные ссылки


    Наши приложения

    • Muzbank App Play Market
    • Muzbank Amazon App