MUZBANK


МУЗЫКАЛЬНО-ИНФОРМАЦИОННЫЙ БАНК





SSlayer • Silent Scream (аккорды и текст - chords & lyrics)


462

Print

Видео «Silent Scream (Slayer)»

Видео клипы к песне подбираются автоматически сайтом youtube. Возможны некоторые несоответствия клипов песне.

↑ Спрятать рекламу ↑





 


silent scream (solo)
album:south of heaven
slayer


solo 1
  play 4 times
eb:20-18-17----|17-18-20-17h18p17-----------------------------------------|
Bb:---------20-|------------------20-17-18-17-----------------------------|
Gb:------------|------------------------------20-17-18-17-----------------|
Db:------------|------------------------------------------20-17-18-17-----|
Ab:------------|------------------------------------------------------20-|
Eb:------------|----------------------------------------------------------|

eb:-----------------------------------------------------------------------------15-18b|
Bb:------------------------------------------------------------------12-13-15/18------|
Gb:---------------------------------------------------12-15b-12-13-15-----------------|
Db:------------------------------------12h14-12-13-15---------------------------------|
Ab:------------------12-14-15-12-14-15------------------------------------------------|
Eb:12-13-15-12-13-15------------------------------------------------------------------|

     t       t        t         t
eb:-------*---------*---------|--------------------------------------------|
Bb:-18-14-*-17-14h15*---------|--------------------------------------------|
Gb:-------*---------*17-14h15-|------9------------------------------------|
Db:-------*---------*---------|17-14-----7-8-10-7-8-7----------------------|
Ab:-------*---------*---------|-----------------------10-7-8-7-7h8p7-7~~ah-|
Eb:-------*---------*---------|--------------------------------------------|

solo 2 --------------------------------------
eb:-----------------------------------------------------------12-14-15-14-12-|
Bb:--------------------------------------------12-13-12-13-15----------------|
Gb:-11b--11-11-11-11-11-11-11-11-11-11-11-11~~-------------------------------|
Db:--------------------------------------------------------------------------|
Ab:--------------------------------------------------------------------------|
Eb:--------------------------------------------------------------------------|


eb:------------------------------12-14-15----------13-15-16----------14-16-17|
Bb:15-12-13-12-13-------12-13-15----------13-14-16----------14-15-17---------|
Gb:---------------14-12------------------------------------------------------|
Db:--------------------------------------------------------------------------|
Ab:--------------------------------------------------------------------------|
Eb:--------------------------------------------------------------------------|


eb:---------15-17-18----------16-18-19----------17-19-20----------18-20-21-|
Bb:15-16-18----------16-17-19----------17-18-20----------18-19-21----------|
Gb:------------------------------------------------------------------------|
Db:------------------------------------------------------------------------|
Ab:------------------------------------------------------------------------|
Eb:------------------------------------------------------------------------|

                              vib/bar 2 times  2 times   2 times   2
times
eb:22b-22b-22b-22b~~--18------17b~~-*---------*---------*---------*---------|
Bb:----------------------17b--20b~~-*---------*---------*---------*---------|
Gb:---------------------------------*---------*---------*---------*12-14-15-|
Db:---------------------------------*---------*---------*-12-13-15*---------|
Ab:---------------------------------*---------*-12-14-15*---------*---------|
Eb:---------------------------------*-12-13-15*---------*---------*---------|
                                    pm.   .  .  .   .  .  .  .  .

eb:---------------12-14-15-14-12-----------------------1717172017171722p20-|
Bb:12-13-12-13-15----------------15-13-12-------15b~~----------------------|
Gb:---------------------------------------14-12-14b~~----------------------|
Db:------------------------------------------------------------------------|
Ab:------------------------------------------------------------------------|
Eb:------------------------------------------------------------------------|

bar                    bar
eb:17171722p2017171722p20-17b-(17~~)----------------------------22-------18b~~|
Bb:-----------------------20b-(20~~)-/20-15b-15b-15b~~~------------------23b~~|
Gb:----------------------------------------------------------------------------|
Db:----------------------------------------------------------------------------|
Ab:------------------------------------------------------------------7--------|
Eb:--------------------------------------------------------15-----------------|


RHYTHM GUITAR 

Tuning Eb 
 
 
 RIFF 1 INTRO x4 
 
|-----------------------------|
|-----------------------------|
|-----------------------------|
|-9-8-------------------------|
|-7-7-------------------------|
|--------00000000000000000000-|
     x   ....................
 
 
 
 RIFF 2 VERSE x4 
 
|-------------------------------------|-------------------------------------|
|-------------------------------------|-------------------------------------|
|-------------------------------------|-------------------------------------|
|-9-8------9--------8---------10------|-9-8------9--------8-----------------|
|-7-7-------10--------9------8--------|-7-7-------10--------9------810------|
|-----0000-----0000-----0000-----0000-|-----0000-----0000-----0000-----0000-|
      ....     ....     ....     ....       ....     ....     ....     ....
 
 
|-------------------------------------|-------------------------------------|
|-------------------------------------|-------------------------------------|
|-------------------------------------|-------------------------------------|
|-9-8------9--------8---------10------|-9-8------9--------8--------7--------|
|-7-7-------10--------9------8--------|-7-7-------10--------9--------8------|
|-----0000-----0000-----0000-----0000-|-----0000-----0000-----0000-----0000-|
      ....     ....     ....     ....       ....     ....     ....     ....
 
 
 
 RIFF 3 CHORUS x2 
 
|KING
|---------------|--------------------------------|
|---------------|--------------------------------|
|---------------|--------------------------------|
|---------------|-2-----0-2-----0-2-----0-2------|
|-9------8------|-2-----0-2-----0-2-----0-2---3--|
|-7------6------|---0-0-----0-0-----0-0-----0-1--|
|                   . .     . .     . .     .
|
|HANNEMAN
|---------------|--------------------------------|
|---------------|--------------------------------|
|11-----10------|--------------------------------|
|-9------8------|-9-----7-9-----7-9-----7-9--10--|
|---------------|-7-----5-7-----5-7-----5-7---8--|
|---------------|---0-0-----0-0-----0-0-----0----|
                    . .     . .     . .     .
 
 
 
 FILL 1 
 
|KING
|--------------------------------|
|--------------------------------|
|--------------------------------|
|-------0-------0-------0--------|
|-2-----0-2-----0-2-----0-2---3--|
|-0-------0-------0-------0---1--|
|  x       x       x       x
|
|HANNEMAN
|--------------------------------|
|--------------------------------|
|--------------------------------|
|-9-----7-9-----7-9-----7-9--10--|
|-7-----5-7-----5-7-----5-7---8--|
|---0-0-----0-0-----0-0-----0----|
    . .     . .     . .     .
 
 


Nightmare, the persecution
A childs dream of death
Torment, ill forgotten
A soul that will never rest

Guidance, it means nothing
In a world of brutal time
Electric, circus wild
Deep in the infants mind

Silent scream
Bury the unwanted child
Beaten and torn
Sacrifice the unborn

Shattered, adolescent
Bearer of no name
Restrained, insane games
Suffer the children condemned

Scattered, remnants of life
Murder a time to die
Pain, suffrage toyed
Lifes little fragments destroyed

Silent scream
Crucify the bastard son
Beaten and torn
Sanctify lives of scorn

Life preordained
Humanity maintained
Extraction termination
Pains agonizing stain

Embryonic death
Embedded in your brain
Suffocation, strangulation
Death is fucking you insane

Nightmare, the persecution
A childs dream of death
Torment, ill forgotten
A soul that will never rest

Innocence withdrawn in fear
Fires burning can you hear
Cries in the night

Тональность:

Это должно быть в ТОП-листе! - Топ-лист композиций



Назад
Рекомендуем посмотреть другие песни исполнителя «Slayer»:

  • Комменты Fb ()
  • Комменты ВК



Добавить в Избранное Браузера
Сохранить здесь Очистить


x

0


+
-

+
-

-

Авторизация





Зарегистрироваться

M

Дата и время

  • 08:41:46
     

Социальные ссылки


Наши приложения

  • Muzbank App Play Market
  • Muzbank Amazon App