MUZBANK



A MOST COMPLETE BANK OF MUSIC INFORMATION

МУЗЫКАЛЬНО-ИНФОРМАЦИОННЫЙ БАНК







    SSlayer • Violent Pacification (аккорды и текст - chords & lyrics)


    310

    Print

    Видео «Violent Pacification (Slayer)»

    Видео клипы к песне подбираются автоматически сайтом youtube. Возможны некоторые несоответствия клипов песне.

    ↑ Спрятать рекламу ↑





     
    
    
    Tabbed by:  Othon Kokkinos (Mortician666@hotmail.com)
    Tuning: Tuned down to E flat (Eb, Ab, Db, Gb, Bb, eb) 
    
    Intro (Bass) 
     
    Verse 
    [----------------------------------] 
    [----------------------------------] 
    [--5----7----8----5----2----3------] 
    [--5----7----8----5----2----3------] 
    [--3----5----6----3----0----1------] 
    [----------------------------------] 
     
     
    Chorus 
    [------------------------------------------] 
    [------------------------------------------] 
    [-------------------2----3-----------------] 
    [--2----3-----------2----3-----------------] 
    [--2----3-----------0----1-----------------] 
    [--0----1----------------------------------] 
     
     
     Chorus Is followed by this: 
    [--------------------------------------------------------------------] 
    [--------------------------------------------------------------------] 
    [--------------------------------------------------------------------] 
    [4444--5555--6666--7777--8888--9999--10101010--11111111--12121212----] 
    [2222--3333--4444--5555--6666--7777---8-8-8-8--9-9-9-9---10101010----] 
    [--------------------------------------------------------------------] 
     
    Play Verse 
    The Chorus 
     
    To end second chorus  play this: 
    [-------------------------------------------------------------------] 
    [-------------------------------------------------------------------] 
    [-------------------------------------------------------------------] 
    [12121212--11111111--10-10-10-10--9999--8888--7777--6666--5555--(4)-] 
    [10101010--9-9-9-9---8--8--8--8---7777--6666--5555--4444--3333--(2)-] 
    [-------------------------------------------------------------------] 
     
    Break  (Drums Playing) 
     
     
    Bridge (Rotate beginnings) (Violent Pacification....) 
    [------------------------------][----------] 
    [------------------------------][----------] 
    [------------------------------][----------] 
    [--4----8-8--------------------][-7-7-7-7--] 
    [--2-5--6-6-55555555555555555--][-5-5-5-5--] 
    [----3------33333333333333333--][----------] 
     
     
    Riff 1 (Will force you......) 
    [--------------------------------------------------] 
    [--------------------------------------------------] 
    [--------------------------------------------------] 
    [-555555555555555---777777777777777777-------------] 
    [-333333333333333---555555555555555555-------------] 
    [--------------------------------------------------] 
     
    Break (Drums, Bass)
     

    Тональность:

    Это должно быть в ТОП-листе! - Топ-лист композиций



    Назад
    Рекомендуем посмотреть другие песни исполнителя «Slayer»:

    • Комменты Fb ()
    • Комменты ВК



    Добавить в Избранное Браузера
    Сохранить здесь Очистить


    x

    0


    +
    -

    +
    -

    -

    Авторизация





    Зарегистрироваться

    M

    Дата и время

    • 13:02:43
       

    Социальные ссылки


    Наши приложения

    • Muzbank App Play Market
    • Muzbank Amazon App