MUZBANK



A MOST COMPLETE BANK OF MUSIC INFORMATION

МУЗЫКАЛЬНО-ИНФОРМАЦИОННЫЙ БАНК







    SSlipknot • Before I Forget (аккорды и текст - chords & lyrics)


    1139

    Print

    Видео «Before I Forget (Slipknot)»

    Видео клипы к песне подбираются автоматически сайтом youtube. Возможны некоторые несоответствия клипов песне.

    ↑ Спрятать рекламу ↑





     
    
    
    sLipKnOt
    Vol.3 (The Subliminal Verses)
    Before I Forget
    
    ------------------------------------------------------------
    Espero que toquen esta fucking song que me costo mucho sacarla,
    agradesco a mis dos patas jOaO y
    sAlAs por haberme еnsесаdо a tocar guitar , thank you all
    Cualquier Cosa acerca de esta tablatura escribanme a mi correo
    sic_stone_sour@hotmail.com
    
    stay(sic)
    ------------------------------------------------------------
    
    Intro :
    
    Guitar 1
    |----------------------------------------------------|
    |----------------------------------------------------|
    |----------------------------------------------------|
    |-0h1---0h1---0h1---0h1----0h1h2h1-------------------|  X4
    |-0h1---0h1---0h1---0h1----0h1h2h1-------------------|
    |-0h1---0h1---0h1---0h1----0h1h2h1-------------------|
    
    
    Guitar 1 & Guitar2
    |----------------------------------------------------|
    |----------------------------------------------------|
    |----------------------------------------------------|
    |-0h1---0h1---0h1---0h1----0h1h2h1-------------------|  X3
    |-0h1---0h1---0h1---0h1----0h1h2h1-------------------|
    |-0h1---0h1---0h1---0h1----0h1h2h1-------------------|
    
    
    Guitar 1 & Guitar2
    |----------------------------------------------------|
    |----------------------------------------------------|
    |----------------------------------------------------|
    |-0h1---0h1---0h1----4-4-1-1-4-4-1-1-----------------|  X1
    |-0h1---0h1---0h1----4-4-1-1-4-4-1-1-----------------|
    |-0h1---0h1---0h1----4-4-0-0-4-4-0-0-----------------|
    
    Guitar 1 & Guitar2
    |----------------------------------------------------|
    |----------------------------------------------------|
    |----------------------------------------------------|
    |-0h1---0h1---0h1---0h1----0h1h2h1-------------------| X3
    |-0h1---0h1---0h1---0h1----0h1h2h1-------------------|
    |-0h1---0h1---0h1---0h1----0h1h2h1-------------------|
    
    Guitar 1 & Guitar2
    |---------------------------------------------------|
    |---------------------------------------------------|
    |---------------------------------------------------|
    |-0h1---0h1---0h1---0h1---4-4-1-1-------------------|  X1
    |-0h1---0h1---0h1---0h1---4-4-1-1-------------------|
    |-0h1---0h1---0h1---0h1---4-4-0-0-------------------|
    
    Guitar 1 & Guitar2
    |----------------------------------------------------|
    |----------------------------------------------------|
    |----------------------------------------------------|
    |-0h1---0h1---0h1---0h1----0h1h2h1-------------------| X3
    |-0h1---0h1---0h1---0h1----0h1h2h1-------------------|
    |-0h1---0h1---0h1---0h1----0h1h2h1-------------------|
    
    Guitar 1 & Guitar2
    |---------------------------------------------------|
    |---------------------------------------------------|
    |---------------------------------------------------|
    |-0h1---0h1---0h1---4-4-1-1-4-4-1-1-----------------|  X1
    |-0h1---0h1---0h1---4-4-1-1-4-4-1-1-----------------|
    |-0h1---0h1---0h1---4-4-0-0-4-4-0-0-----------------|
    
    *** VERSE *** (4X)
    
    Guitar 1                             Guitar 2                  B
    |-----------------        |-------------------------------------------------------------------------------|
    |-----------------        |-------------------------------------------------------------------------------|
    |-3-3-2-0-4-------  X7    
     X1
    |-3-3-2-0-4-------        |--4-4-1-1----------------------------------------------------------------------|
    |-3-3-2-0-4-------        |--4-4-0-0----------------------------------------------------------------------|
    [........PM.......]
    
    °°°°°°°°°°°°°°°°°°°°°°°°°°°°°°°°°°°°°°°°°°°°°°°°°°°°°°°°°°°°°°°
    
    Guitar 1  (X2)                    Guitar 1(X2)
    |----------------     |---------------------|
    |--0-1-0-1------ X1   |--0-1-0-1-2-1-0------|  X1
    |--0-1-0-1------      |--0-1-0-1-2-1-0------|
    [........PM.......]     [.......PM.......]
    
    
     Guitar 2
    |-----------------------|
    |-----------------------|
    |-----------------------|
    |-----------------------|
    |-1-----4-----3-----2---|
    |-1-----4-----3-----2---|
    
    |---------------|
    |---------------|
    |---------------|
    |---------------|
    |---------------|
    |--0-1-0-1------|
    
    |------------------|
    |------------------|
    |------------------|
    |------------------|
    |------------------|
    |--0-1-0-1-2-1-0---|
    
    |--------------------------|
    |--------------------------|
    |--------------------------|
    |--------------------------|
    |--------------------------|
    |-1-----4-----3-----2------|
    
    °°°°°°°°°°°°°°°°°°°°°°°°°°°°°°°°°°°°
    
    *** CHORUS ***
    
    Guitar 1 & Guitar 2
    |-------------------------------------------------|
    |-------------------------------------------------|
    |-------------------------------------------------|
    |--1----0-1-4----0-1-4----2-0-1-------------------|      X2
    |--1----0-1-4----0-1-4----2-0-1-------------------|
    |--1----0-1-4----0-1-4----2-0-1-------------------|
    
    Guitar 1 & Guitar 2
    |--------------------------------------------------|
    |--------------------------------------------------|
    |--------------------------------------------------|
    |--1----0-1-4----0-1-4----1-0-1--------------------|      X1
    |--1----0-1-4----0-1-4----1-0-1--------------------|
    |--1----0-1-4----0-1-4----1-0-1--------------------|
    
    Guitar 1 & Guitar 2
    |---------------------------------------------|
    |---------------------------------------------|
    |---------------------------------------------|
    |-6-6-6-7-6-9--44444-6-7-6--------------------|   X2
    |-6-6-6-7-6-9--44444-6-7-6--------------------|
    |-6-6-6-7-6-9--44444-6-7-6--------------------|
    
    ****************
    
    Guitar 1 & Guitar2
    |----------------------------------------------------|
    |----------------------------------------------------|
    |----------------------------------------------------|
    |-0h1---0h1---0h1---0h1----0h1h2h1-------------------|  X3
    |-0h1---0h1---0h1---0h1----0h1h2h1-------------------|
    |-0h1---0h1---0h1---0h1----0h1h2h1-------------------|
    
    Guitar 1 & Guitar2
    |---------------------------------------------------|
    |---------------------------------------------------|
    |---------------------------------------------------|
    |-0h1---0h1---0h1---4-4-1-1-------------------------|  X1
    |-0h1---0h1---0h1---4-4-1-1-------------------------|
    |-0h1---0h1---0h1---4-4-0-0-------------------------|
    
    
    *** VERSE 2 ***
    
    Guitar 1                             Guitar 2
    |-------------------     |-------------------     |--->
    |-------------------    |-------------------      |--->
    |-------------------    |-------------------      |--->
    |-3-3-2-0-4-------  X7  |--4-4-1-1---------  X1   |--->   X2
    |-3-3-2-0-4-------      |--4-4-1-1---------       |--->
    |-3-3-2-0-4-------      |--4-4-0-0---------       |--->
    °°°°°°°°°°°°°°°°°°°°°°°°°°°°°°°°°°°°°°°°°°°°°°°°°°°°°°°°°°
    Guitar 1  (X2)                    Guitar 1(X2)
    |----------------     |---------------------|
    |--0-1-0-1------ X1   |--0-1-0-1-2-1-0------|  X1
    |--0-1-0-1------      |--0-1-0-1-2-1-0------|
    [........PM.......]     [.......PM.......]
    
    
     Guitar 2
    |-----------------------|
    |-----------------------|
    |-----------------------|
    |-----------------------|
    |-1-----4-----3-----2---|
    |-1-----4-----3-----2---|
    
    |---------------|
    |---------------|
    |---------------|
    |---------------|
    |---------------|
    |--0-1-0-1------|
    
    |------------------|
    |------------------|
    |------------------|
    |------------------|
    |------------------|
    |--0-1-0-1-2-1-0---|
    
    |--------------------------|
    |--------------------------|
    |--------------------------|
    |--------------------------|
    |--------------------------|
    |-1-----4-----3-----2------|
    
    °°°°°°°°°°°°°°°°°°°°°°°°°°°°°°°°°°°°
    
    *** CHORUS ***
    
    Guitar 1 & Guitar 2
    |-------------------------------------------------|
    |-------------------------------------------------|
    |-------------------------------------------------|
    |--1----0-1-4----0-1-4----2-0-1-------------------|      X2
    |--1----0-1-4----0-1-4----2-0-1-------------------|
    |--1----0-1-4----0-1-4----2-0-1-------------------|
    
    Guitar 1 & Guitar 2
    |--------------------------------------------------|
    |--------------------------------------------------|
    |--------------------------------------------------|
    |--1----0-1-4----0-1-4----1-0-1--------------------|      X1
    |--1----0-1-4----0-1-4----1-0-1--------------------|
    |--1----0-1-4----0-1-4----1-0-1--------------------|
    
    Guitar 1 & Guitar 2
    |------------------------------------------------|
    |------------------------------------------------|
    |------------------------------------------------|
    |-6-6-6-7-6-9--4--44444-6-7-6--------------------|   X2
    |-6-6-6-7-6-9--4--44444-6-7-6--------------------|
    |-6-6-6-7-6-9--4--44444-6-7-6--------------------|
    
    *** VERSE  3 ***
    Guitar 1                         Guitar 2
    |-------------------          |---------------|
    |-------------------          |---------------|
    |-------------------          |---------------|
    |--3h4-444444--- X3      |-344--6-4-----------| X1
    |-------------------          |---------------|
    |-------------------          |---------------|
    
    *** SOLO ***
    Guitar 2
    |----------------------------------------------|
    |----------------------------------------------|
    |----------------------------------------------|
    |--8/11--9896--8/6--6-6/9--878--6-6/4----------|     X1
    |----------------------------------------------|
    |----------------------------------------------|
    
    *** VERSE  4 ***
    Guitar 2
    |-------------------            |-----------------------|
    |-------------------            |-----------------------|
    |-------------------            |-----------------------|
    |--3h4-444444--- X6        |-6---8-9-10-9-8-6-- X15-----|
    |-------------------            |-----------------------|
    |-------------------            |-----------------------|
    
    
    *** CHORUS *** (3X)
    
    Guitar 1 & Guitar 2
    |-------------------------------------------------|
    |-------------------------------------------------|
    |-------------------------------------------------|
    |--1----0-1-4----0-1-4----2-0-1-------------------|      X2
    |--1----0-1-4----0-1-4----2-0-1-------------------|
    |--1----0-1-4----0-1-4----2-0-1-------------------|
    
    Guitar 1 & Guitar 2
    |--------------------------------------------------|
    |--------------------------------------------------|
    |--------------------------------------------------|
    |--1----0-1-4----0-1-4----1-0-1--------------------|      X1
    |--1----0-1-4----0-1-4----1-0-1--------------------|
    |--1----0-1-4----0-1-4----1-0-1--------------------|
    
    Guitar 1 & Guitar 2
    |------------------------------------------------|
    |------------------------------------------------|
    |------------------------------------------------|
    |-6-6-6-7-6-9--4--44444-6-7-6--------------------|   X2
    |-6-6-6-7-6-9--4--44444-6-7-6--------------------|
    |-6-6-6-7-6-9--4--44444-6-7-6--------------------|
    
    *** OUTRO ***
    Guitar 1 & Guitar 2
    |----------------------------------------------------|
    |----------------------------------------------------|
    |----------------------------------------------------|
    |-0h1---0h1---0h1---0h1----0h1h2h1-------------------|  X7
    |-0h1---0h1---0h1---0h1----0h1h2h1-------------------|
    |-0h1---0h1---0h1---0h1----0h1h2h1-------------------|
    
    Guitar 1 & Guitar2
    |----------------------------------------------------|
    |----------------------------------------------------|
    |----------------------------------------------------|
    |-0h1---0h1---0h1----4-4-1-1-4-4-1-1-----------------|  X1
    |-0h1---0h1---0h1----4-4-1-1-4-4-1-1-----------------|
    |-0h1---0h1---0h1----4-4-0-0-4-4-0-0-----------------|
    
    End
     

    Тональность:

    Это должно быть в ТОП-листе! - Топ-лист композиций



    Назад
    Рекомендуем посмотреть другие песни исполнителя «Slipknot»:

    • Комменты Fb ()
    • Комменты ВК



    Добавить в Избранное Браузера
    Сохранить здесь Очистить


    x

    0


    +
    -

    +
    -

    -

    Авторизация





    Зарегистрироваться

    M

    Дата и время

    • 17:42:01
       

    Социальные ссылки


    Наши приложения

    • Muzbank App Play Market
    • Muzbank Amazon App