MUZBANK


МУЗЫКАЛЬНО-ИНФОРМАЦИОННЫЙ БАНК





SSlipknot • Psychosocial (аккорды и текст - chords & lyrics)


1385

Print

Видео «Psychosocial (Slipknot)»

Видео клипы к песне подбираются автоматически сайтом youtube. Возможны некоторые несоответствия клипов песне.

↑ Спрятать рекламу ↑





I did my time, and I want out
I saw my future...fade
It doesn't cut,
The soul is not so vibrant
The reckoning, the sickening
Back at you, the virgin,
Pseudo-sick but sick perversion
Go drill your gases,
Go dig your grave
Then fill your mouth
With all the money you will save
Sinking in, getting smaller again
I'm done, it has begun
I'm not the only one

And the reign will kill us all,
Throw ourselves against the wall
But no one else can see,
The preservation of the martyr in me

Psychosocial, psychosocial, psychosocial
Psychosocial, psychosocial, psychosocial

Oh, there are cracks, in the road we lay
But will they ever fill?
The secrets have gone mad!
This is nothing new,
But would we kill it all?
Fate was all we had
The reason of the mess,
We could start over
Just look me in the eyes
And say I'm wrong
Now there's only emptiness,
But a message to bring
I think we're done
I'm not the only one!

And the reign will kill us all,
Throw ourselves against the wall
But no one else can see,
The preservation of the martyr in me

Psychosocial, psychosocial, psychosocial
Psychosocial, psychosocial, psychosocial

Fate can not catch this lie,
I tried to tell you first
Your hurtful lies are giving out
Can't stop the killing, I can't help it
Is there something psycho?
Is this what you want?
I'm not the only one!

And the reign will kill us all,
Throw ourselves against the wall
But no one else can see,
The preservation of the martyr in me

Psychosocial, psychosocial, psychosocial
Psychosocial, psychosocial, psychosocial


*** Guitar Tabulature:

Intro - guitar 1:

B ||-------|-------|---------------------------------------|
F#||-------|-------|---------------------------------------|
D ||-------|-------|---------------------------------------|
A ||-------|-------|-----------------6b------------------|
E ||-------|-------|------------------------0--3--5--------|
A ||-------|-------|--0--0--0--0--0---------0--3h-5--0--0--|

   
-----------------------------------------|------------------------------------|
-----------------------------------------|------------------------------------|
-----------------------------------------|------------------------------------|
-----------------------6b--------------|-----------------6----------------|
---------------------------------3h-5----|--------------------------3-5-------|
--0--0--0--0--0--0--0---------0--3h-5----|-----0--0--0--0--------0--3-5-0--0--|

 
--------------------------------------------------|
--------------------------------------------------|
--------------------------------------------------|
--------------------------------------------------|
--------------------------------------------------|
--5--5--5--5--6--6--6--6--8--8--8--8--7--7--7--7--|


---------------------------------------|
---------------------------------------|
---------------------------------------|
-----------------6b------------------|
------------------------0--3--5--------|
--0--0--0--0--0---------0--3h-5--0--0--|

 
-----------------------------------------|------------------------------------|
-----------------------------------------|------------------------------------|
-----------------------------------------|------------------------------------|
-----------------------6b--------------|-----------------6----------------|
---------------------------------3h-5----|--------------------------3-5-------|
--0--0--0--0--0--0--0---------0--3h-5----|-----0--0--0--0--------0--3-5-0--0--|

   
--------------------------------------------------|
--------------------------------------------------|
--------------------------------------------------|
--------------------------------------------------|
--------------------------------------------------|
--5--5--5--5--6--6--6--6--8--8--8--8--7--7--7--7--|

    
|----------------------------------------------------||
|----------------------------------------------------||
|*--------------------------------------------------*||
|*--------------------------------------------------*||
|----------------------------------------------------||
|---5--5--5--5--6--6--6--6--8--8--8--8--7--7--7--7---||


|--------------------------------------------|
|--------------------------------------------|
|--------------------------------------------|
|--------------------------------------------|
|--------------------------------------------|
|--5--5--5--5--6--6--6--6--8--8--8--8--5--6--|


Intro - guitar 2:
|------------------------------------------------------|
|------------------------------------------------------|
|------------------------------------------------------|
|------------------------------------------------------|
|-0----------------------------------------------------|
|-0--------------------------------------------0--3h5--|

 
|---------------------------------------------------------|
|---------------------------------------------------------|
|---------------------------------------------------------| X2
|----------6*---------------------------------------------|
|-------------------------6-6-6-6-7-7-7-7-9-9-9-9-8-8-8-8-|
|-0--0-0-0-----0--3h5-0-0---------------------------------|

 
|-----------------------------------------------------------------|
|-----------------------------------------------------------------|
|-----------------------------------------------------------------|
|-----------------------------------------------------------------|
|-6-6-6-6-7-7-7-7-9-9-9-9-8-8-8-8-6-6-6-6-7-7-7-7-9-9-9-9-8-8-8-8-|
|-----------------------------------------------------------------|

 
|--------------------------|
|--------------------------|
|--------------------------|
|--------------------------|
|-66666666777799998888-12\-|
|----------------------12\-|
 




Verse Riff 
--------------------------|--------------------------|
--------------------------|--------------------------|
--------------------------|--------------------------|
--6--0--0--5--0--0--5--6--|--6--0--0--5--0--0--5--6--|
--6--0--0--5--0--0--5--6--|--6--0--0--5--0--0--5--6--|
--6--0--0--5--0--0--5--6--|--6--0--0--5--0--0--5--6--|

  
--------------------------||
--------------------------||
--------------------------||
--------------------------||
--6--5--3--1--3--5--3--1--||
--6--5--3--1--3--5--3--1--||


Chorus riff
|----------------------------------------------------------|
|----------------------------------------------------------|
|----------------------------------------------------------|
|----------------------3--3-3----------------5--5-5-8--8-8-|
|-6-6-6-6-6-6-6-1--1-1-1--1-1-5--5-5-5-5-5-5-3--3-3-6--6-6-|
|-6-6-6-6-6-6-6-1--1-1--------5--5-5-5-5-5-5---------------|
                                . . . . . .
 
|----------------------------------------------------------|
|----------------------------------------------------------|
|----------------------------------------------------------|
|-----------------------3--3-3-----------------------------|
|-6--6-6-6-6-6-6-1--1-1-1--1-1-5--5-5-5-5-5-5-5-5----0-12\-|
|-6--6-6-6-6-6-6-1--1-1--------5--5-5-5-5-5-5-5-5----0-12\-|


Breakdown riff  
|--------------------------------------------|
|--------------------------------------------|
|--------------------------------------------|
|--------------------------------------------|
|------------------------------------0---12\-|
|-0-0-----0-0-0---0-0-0---0-0-0-0----0---12\-|


Outro riff 1 
|--------------------------------------------------|
|--------------------------------------------------|
|--------------------------------------------------|
|--------------------------------------------------|
|-0-0---0-0----0-0-0---0-0----0-0-0-0---0-0-0-3--2-|
|-0-0---0-0----0-0-0---0-0----0-0-0-0---0-0-0-3--2-|


Outro riff 2 
|--------------------------------------------------|
|--------------------------------------------------|
|--------------------------------------------------|
|--------------------------------------------------|
|-0-0---0-0----0-0-0---0-0----0-0-0-0--------------|
|-0-0---0-0----0-0-0---0-0----0-0-0-0--------------|




Тональность:

Это должно быть в ТОП-листе! - Топ-лист композиций



Назад
Рекомендуем посмотреть другие песни исполнителя «Slipknot»:

  • Комменты Fb ()
  • Комменты ВК



Добавить в Избранное Браузера
Сохранить здесь Очистить


x

0


+
-

+
-

-

Авторизация





Зарегистрироваться

M

Дата и время

  • 12:49:39
     

Социальные ссылки


Наши приложения

  • Muzbank App Play Market
  • Muzbank Amazon App