MUZBANK



A MOST COMPLETE BANK OF MUSIC INFORMATION

МУЗЫКАЛЬНО-ИНФОРМАЦИОННЫЙ БАНК







    SSlipknot • Surfacing (аккорды и текст - chords & lyrics)


    431

    Print

    Видео «Surfacing (Slipknot)»

    Видео клипы к песне подбираются автоматически сайтом youtube. Возможны некоторые несоответствия клипов песне.

    ↑ Спрятать рекламу ↑





     
    
    
    By: Patrick Forlin
    
    Guitar 1
    
    E]--19--21-21-21-21-21-21-21
    B]--------------------------
    G]--------------------------
    D]--------------------------
    A]--------------------------
    E]-------------------------- X8
    
    Guitar 2 Interupts
    
    E]--------------------------
    B]--------------------------
    G]--------------------------
    D]--------------------------
    A]--------------------------
    E]--2-3--(3)(3)-3-2-3-------X1
    
    
    E]-------------------------
    B]-------------------------
    G]-------------------------
    D]-------------------------
    A]-------------------------
    E]--(3)(3)-3-2-3-----------X23
    
    Guitars 1 and 2
    
    E]--------------------------
    B]--------------------------
    G]--------------------------
    D]--------------------------
    A]--4/5--(5)(5)-54/5-------
    E]--2/3--(3)(3)-32/3-------X1
    
    
    E]--------------------------
    B]--------------------------
    G]--------------------------
    D]--------------------------
    A]--(5)(5)-54/5------------
    E]--(3)(3)-32/3------------X8
    
    Guitars 1 and 2
    
    
    E]--------------------------
    B]--------------------------
    G]--------------------------
    D]--------------------------
    A]--(5)(5)-54--(4)(4)--5---
    E]--(3)(3)-32--(2)(2)--3---X6
    
    
    Thats basically it for the intro, the tabs are right, but the number of times done might 
    not be, so i suggests listening to the song while playing.
     
    /LYRICS:/
    
    Running out of ways to run
    I can't see I can't be
    Over and over and under my skin
    All this attention is doing me in!
    
    Fuck it all! Fuck this world!
    Fuck everything that you stand for!
    Don't belong! Don't exist!
    Don't give a shit!
    Don't ever judge me!
    
    Picking through the parts exposed
    Taking shape taking shag
    Over and over and under my skin
    All this momentum is doing me in!
    
    Fuck it all! Fuck this world!
    Fuck everything that you stand for!
    Don't belong! Don't exist!
    Don't give a shit!
    Don't ever judge me!
    
    You got all my love, livin' in your own hate
    Drippin' hole man, hard step, no fate
    Show you nuthin', but I ain't holdin' back
    Every damn word I say is a sneak attack
    When I get my hands on you
    Ain't a fuck thing you can do
    Get this cuz you're never gonna get me
    I am the very disease you pretend to be
    
    I am the push that makes you move
    

    Тональность:

    Это должно быть в ТОП-листе! - Топ-лист композиций



    Назад
    Рекомендуем посмотреть другие песни исполнителя «Slipknot»:

    • Комменты Fb ()
    • Комменты ВК



    Добавить в Избранное Браузера
    Сохранить здесь Очистить


    x

    0


    +
    -

    +
    -

    -

    Авторизация





    Зарегистрироваться

    M

    Дата и время

    • 05:01:18
       

    Социальные ссылки


    Наши приложения

    • Muzbank App Play Market
    • Muzbank Amazon App
    • Muzbank Bitcoin13igjuWJj2R4cHiyZqP7Q3ggVvfXE9j82Q