MUZBANK



A MOST COMPLETE BANK OF MUSIC INFORMATION

МУЗЫКАЛЬНО-ИНФОРМАЦИОННЫЙ БАНК







    SSlipknot • Tattered And Torn (аккорды и текст - chords & lyrics)


    277

    Print

    Видео «Tattered And Torn (Slipknot)»

    Видео клипы к песне подбираются автоматически сайтом youtube. Возможны некоторые несоответствия клипов песне.

    ↑ Спрятать рекламу ↑





     
    
    
    Tattered and Torn-Slipknot
    Slipknot
    
    Drop B
    B F# B E G# C#
    
    Riff A
    w/ heavy reverb and digi-tech whammy pedal set up one octave
    
    e-18p17h18-------------17h18p17h18--------------------
    b----------19h20p19h20-------------16h17p16h17p16-----
    g-----------------------------------------------------
    d-----------------------------------------------------
    a-----------------------------------------------------
    d-----------------------------------------------------
    
    Verses dive w/ whammy pedal
    
    e-18---------(14)----------18------------(14)---------
    b-----------------------------------------------------
    g-----------------------------------------------------
    d-----------------------------------------------------
    a-----------------------------------------------------
    d-----------------------------------------------------
    
    Outro:
    
    e---------------------------------------------------------
    b---------------------------------------------------------
    g---------------------------------------------------------
    d---------------------------------------------------------
    a-0-0--0-1p0--0-3p0--0-1p0-4--0-0--0-1p0--0-3p0--0-1p0-4--
    d-0-0--0-1p0--0-3p0--0-1p0-4--0-0--0-1p0--0-3p0--0-1p0-4--
    
    e--------------------------------------------------------------
    b--------------------------------------------------------------
    g--------------------------------------------------------------
    d--------------------------------------------------------------
    a-0-0-0-0-1p0-0-0-3p0-0-0-1p0-4-0-0-0-0-1p0-0-0-3p0-0-0-1p0-4--
    d-0-0-0-0-1p0-0-0-3p0-0-0-1p0-4-0-0-0-0-1p0-0-0-3p0-0-0-1p0-4--
    
    that’s all
    
    trevor jones
    timmy91199@yahoo.ca
     

    Тональность:

    Это должно быть в ТОП-листе! - Топ-лист композиций



    Назад
    Рекомендуем посмотреть другие песни исполнителя «Slipknot»:

    • Комменты Fb ()
    • Комменты ВК



    Добавить в Избранное Браузера
    Сохранить здесь Очистить


    x

    0


    +
    -

    +
    -

    -

    Авторизация





    Зарегистрироваться

    M

    Дата и время

    • 14:46:26
       

    Социальные ссылки


    Наши приложения

    • Muzbank App Play Market
    • Muzbank Amazon App