MUZBANK



A MOST COMPLETE BANK OF MUSIC INFORMATION

МУЗЫКАЛЬНО-ИНФОРМАЦИОННЫЙ БАНК







    SSlipknot • The Heretic Anthem (аккорды и текст - chords & lyrics)


    303

    Print

    Видео «The Heretic Anthem (Slipknot)»

    Видео клипы к песне подбираются автоматически сайтом youtube. Возможны некоторые несоответствия клипов песне.

    ↑ Спрятать рекламу ↑





     
    
    
    Slipknot – The Heretic Anthem
    
    Same Tuning here aswell as with People = *** dropped, helps if you have a 5 string.
    
    D|
    A|
    E|
    A| 1--0-0-0-1--0-0-1--0-0-1--0-0-1--0-0-1--0-0-1--0-0-1--0-0-1--0-0-1
    
    D|
    A|
    E|                           (X12)
    A|0-0-1
    
    D|
    A|
    E|                            (X1)
    A|0-0-1-1-1-1
    
    D|--------------------------------------
    A|----------------0---------------------
    E|-------4-5--------------------------- (X8)
    A|0--1--------------4-0-3-0-2-------
    
    D|
    A|
    E| (X8)
    A|0-1-0-3-0-5-0-7
    
    D|
    A|
    E| (X8)
    A|0-0-0-1-0-0-1-0-3-4-3
    
    D|
    A|
    E| (X8)
    A|0-1-0-3-0-5-0-7
    
    D|
    A|
    E| (X1)
    A|12--12--12
    
    D|
    A|
    E|---------------------------------1-----------------------1-0-----  (X4)
    A|0-0-0-0-1-0-0-0-0-0-1-0-0-1-0-0------0-0-0-0-1-0-0-0-0---------2-1
    
    D|
    A|
    E|-----------------------------1--------------1-0-------(X2)
    A|0-0-0-0-1-------0-0-0-1-0-0----0-0-0-0-1----------2-1
    
    D|
    A|
    E|----------------------------1-------------
    A|0-0-0-0-1-------0-0-0-1-0-0----0-0-0-0-1 (X4)
    
    D|
    A|
    E|
    A|2~-----2/ 2 2~----2/(slow)
    
    D|
    A|
    E|    (X4)
    A|0-1-0-3-0-5-0-7
    
    D|
    A|
    E|---------------------------------1----------------------1-0----- (X4)
    A|0-0-0-0-1-0-0-0-0-0-1-0-0-1-0-0-----0-0-0-0-1-0-0-0-0---------2-1
    
    D|
    A|
    E|---------------------------------1----------------------1-0----  (X1)
    A|0-0-0-0-1-0-0-0-0-0-1-0-0-1-0-0-----0-0-0-0-1-0-0-0-0---------2
    ====
     

    Тональность:

    Это должно быть в ТОП-листе! - Топ-лист композиций



    Назад
    Рекомендуем посмотреть другие песни исполнителя «Slipknot»:

    • Комменты Fb ()
    • Комменты ВК



    Добавить в Избранное Браузера
    Сохранить здесь Очистить


    x

    0


    +
    -

    +
    -

    -

    Авторизация





    Зарегистрироваться

    M

    Дата и время

    • 08:17:30
       

    Социальные ссылки


    Наши приложения

    • Muzbank App Play Market
    • Muzbank Amazon App