MUZBANK



A MOST COMPLETE BANK OF MUSIC INFORMATION

МУЗЫКАЛЬНО-ИНФОРМАЦИОННЫЙ БАНК







    SSmashing Pumpkins • Hello Kitty Kat (аккорды и текст - chords & lyrics)


    304

    Print

    Видео «Hello Kitty Kat (Smashing Pumpkins)»

    Видео клипы к песне подбираются автоматически сайтом youtube. Возможны некоторые несоответствия клипов песне.

    ↑ Спрятать рекламу ↑





     
    
    
    Title: Hello Kitty Kat
    Artist: The Smashing Pumpkins
    Tuning: E A D G
    
    Riff1
    G|-----------------------------|
    D|-----------------------------|
    A|-----------------------------|
    E|2--2-2-0h2--2--2-2-2-0h2-2-2-|
    
    At the chorus:
    
    Riff2
    G|--------------------|
    D|--------------------|
    A|--------------------|
    E|4--4h4--0-0-0-0-0-0-|
    
    Play Riff1 again sometimes playing:
    
    Riff3
    G|---------------|
    D|---------------|
    A|2-2-2----------|
    E|------0--0-0-0-|
    
    Play Riff2 then:
    
    Riff4
    G|-------------------------------|
    D|-------------------------------|
    A|4--4h4----------4-4h4--------2-|
    E|-------0--0-0-0-------0--0-5h--|
    
    Last time:
    
    G|------------------------|
    D|------------------------|
    A|4--4h4----------4-4h4-5-|
    E|-------0--0-0-0---------|
    
    
    During the solo:
    
    Riff5
    G|----------|
    D|----------|
    A|2-------4-|
    E|--4-0h2---|
    
    Then right before Billy comes in play:
    
    G|-------------|
    D|-------------|
    A|4--6--7--9---|
    E|-------------|
    
    Play Riff2, Riff1 to the end.
     

    Тональность:

    Это должно быть в ТОП-листе! - Топ-лист композиций



    Назад
    Рекомендуем посмотреть другие песни исполнителя «Smashing Pumpkins»:

    • Комменты Fb ()
    • Комменты ВК



    Добавить в Избранное Браузера
    Сохранить здесь Очистить


    x

    0


    +
    -

    +
    -

    -

    Авторизация





    Зарегистрироваться

    M

    Дата и время

    • 22:43:12
       

    Социальные ссылки


    Наши приложения

    • Muzbank App Play Market
    • Muzbank Amazon App