MUZBANK



A MOST COMPLETE BANK OF MUSIC INFORMATION

МУЗЫКАЛЬНО-ИНФОРМАЦИОННЫЙ БАНК







    SSmile Empty Soul • Bottom Of A Bottle (аккорды и текст - chords & lyrics)


    264

    Print

    Видео «Bottom Of A Bottle (Smile Empty Soul)»

    Видео клипы к песне подбираются автоматически сайтом youtube. Возможны некоторые несоответствия клипов песне.

    ↑ Спрятать рекламу ↑






     
    
    
    Tuning: (low to high) Db Ab Db Gb Bb Eb
    
    i cant get the first part of the intro so ill skip
    
    part of the intro:
    eb------------------------------------
    bb------------------------------------
    gb-----5--5-5-------------------------    X4
    db-2-0-5--5-5-5--5/7--7-7-xx-7/9-9/7-5
    ab-2-0-3--3-3-5--5/7--7-7-xx-7/9-9/7-5
    db-2-0--------5--5/7--7-7-xx-7/9-9/7-5
    
    Verse
    
    eb-------------------------------------
    bb-------------------------------------
    gb-------------------------------------
    db-------------------------------------
    ab------3--3-3-------------------------
    db--2-0--------5--5/7--7-7-xx-7/9-9/7-5
    
    
    chorus
    
    eb------------------------------
    bb------------------------------
    gb----------------2-2-5---5-5555
    db-2-2-0---0-0000-2-2-5---5-5555
    ab-2-2-0---0-0000-0-0-3---3-3333
    db-2-2-0---0-0000---------------
    
    
    bridge
    
    eb----------------------------------------------------------------
    bb----------------------------------------------------------------
    gb---------------------------------------------5---------5-5-5-5-5
    db---------------------------------5-5-5-5-5-5-5-5-5-5-5-5-5-5-5-5
    ab-2-2-2-2-2-2-2-2/5-5-5-5-5-5-5-5-3-3-3-3-3-3-3-3-3-3-3-3-3-3-3-3
    db-2-2-2-2-2-2-2-2/5-5-5-5-5-5-5-5--------------------------------
    
    on final part of bridge instead of the last two strums of the 53 play xx
     

    Тональность:

    Это должно быть в ТОП-листе! - Топ-лист композиций



    Назад
    Рекомендуем посмотреть другие песни исполнителя «Smile Empty Soul»:

    • Комменты Fb ()
    • Комменты ВК



    Добавить в Избранное Браузера
    Сохранить здесь Очистить


    x

    0


    +
    -

    +
    -

    -

    Авторизация





    Зарегистрироваться

    M

    Дата и время

    • 08:15:34
       

    Социальные ссылки


    Наши приложения

    • Muzbank App Play Market
    • Muzbank Amazon App