MUZBANK



A MOST COMPLETE BANK OF MUSIC INFORMATION

МУЗЫКАЛЬНО-ИНФОРМАЦИОННЫЙ БАНК







    SSmile Empty Soul • The Other Side (аккорды и текст - chords & lyrics)


    361

    Print

    Видео «The Other Side (Smile Empty Soul)»

    Видео клипы к песне подбираются автоматически сайтом youtube. Возможны некоторые несоответствия клипов песне.

    ↑ Спрятать рекламу ↑





     
    
    
    Tuning is Dropped D a half step down.(Db)
    
    verse:
    |---------------------------------|
    |----------------------0-0-0------|
    |--------5-5-5---------2-2-2------|
    |2-2-x-x-5-5-5-0-0-x-x-2-2-2------|
    |2-2-x-x-3-3-3-0-0-x-x-0-0-0------|
    |2-2-x-x-------0-0-x-x------------|
    
    chorus:
    |----------------------------------|
    |----------------------------------|
    |----------------------------------|
    |-2-x-x-4-x-x-5-x-x-7-x-x-10-10-7-7|x2
    |-2-x-x-4-x-x-5-x-x-7-x-x-10-10-7-7|
    |-2-x-x-4-x-x-5-x-x-7-x-x-10-10-7-7|
    
    interlude(neighbor boy runs up to me....)clean then distorted
    |-------------------------------------------------------------------------|
    |-------------------------------------------------------------------------|
    |-----12-12-12-11-11------11-11-11-9-9-----12-12-12-16-16-14--------------|
    |-2-2-x--x--x--x--x--0-0--x--x--x--x-x-2-2-x--x--x--x--x--x---------------|
    |-2-2-10-10-10-9--9--0-0--9--9--9--7-7-2-2-10-10-10-14-14-12--------------|
    |-2-2----------------0-0---------------2-2--------------------------------|
    
    Thats pretty much it...email me at jre0690@hotmail.com iwth any corrections
    or if you have any requests for any songs
     

    Тональность:

    Это должно быть в ТОП-листе! - Топ-лист композиций



    Назад
    Рекомендуем посмотреть другие песни исполнителя «Smile Empty Soul»:

    • Комменты Fb ()
    • Комменты ВК



    Добавить в Избранное Браузера
    Сохранить здесь Очистить


    x

    0


    +
    -

    +
    -

    -

    Авторизация





    Зарегистрироваться

    M

    Дата и время

    • 05:05:41
       

    Социальные ссылки


    Наши приложения

    • Muzbank App Play Market
    • Muzbank Amazon App