MUZBANK



A MOST COMPLETE BANK OF MUSIC INFORMATION

МУЗЫКАЛЬНО-ИНФОРМАЦИОННЫЙ БАНК







    SSnot • Requiem (аккорды и текст - chords & lyrics)


    314

    Print

    Видео «Requiem (Snot)»

    Видео клипы к песне подбираются автоматически сайтом youtube. Возможны некоторые несоответствия клипов песне.

    ↑ Спрятать рекламу ↑





     
    
    
    This is off the Strait Up album 
    Tabbed by : blinders
    E-mail : blinders@club-internet.fr
    DADGHBE
    INTRO (w/heavy wha)
    
    |-12-12-12-12-12-12-12-12-12-12-12-12-13----
    |-------------------------------------13----
    |-10-10-10-10-10-10-10-10-10-10-10-10-11----
    |-------------------------------------------
    
    |-12-12-12-12-12-12-12-12-12-12-12-12-11----|
    |-------------------------------------11----|
    |-10-10-10-10-10-10-10-10-10-10-10-10-9-----|
    |-------------------------------------------|
    
    Verse
    |-3-5-3-5-8---5-3-5-6---3-5-4-8-888888-9-99-54-
    |-3-5-3-5-8---5-3-5-6---3-5-4-8-888888-9-99-54-
    |-3-5-3-5-8---5-3-5-6---3-5-4-8-888888-9-99-54-
    
    |-3-5-3-5-6-5-3-5-3-5-3-5-6-5-3-5-8-888888-9-99-(6666)-|
    |-3-5-3-5-6-5-3-5-3-5-3-5-6-5-3-5-8-888888-9-99-(6666)-|
    |-3-5-3-5-6-5-3-5-3-5-3-5-6-5-3-5-8-888888-9-99-(6666)-|
    w/hs arpegiated
    very fast
    
    Pre-chorus
    |-12-12-12-12-12-12-12-12-12-12-12-12-13----
    |-------------------------------------13----
    |-10-10-10-10-10-10-10-10-10-10-10-10-11----
    |-------------------------------------------
    
    |-12-12-12-12-12-12-12-12-12-12-12-12-------|
    |-------------------------------------------|
    |-10-10-10-10-10-10-10-10-10-10-10-10-------|
    |-------------------------------------------|
    
    Chorus
    Guit1
    |-11-1111-11-1111-10-1010-6-66-3-33-3-33-|
    |-11-1111-11-1111-10-1010-6-66-3-33-3-33-|
    |-11-1111-11-1111-10-1010-6-66-3-33-3-33-|
    
    |-11-1111-11-1111-10-1010-6-66-3-33-3-33-4444-3333-|
    |-11-1111-11-1111-10-1010-6-66-3-33-3-33-4444-3333-|
    |-11-1111-11-1111-10-1010-6-66-3-33-3-33-4444-3333-| 
    Guit2
    |---10---|
    |--------|
    |---8----|
    |--------|
    trem picks
    Breack
    |----------------------------35356535-5-|
    |----------------------------35356535-5-|
    |-35353535-35356535-35353535-35356535-5-| 
    pm--------------------------|
    
    End
    |-3-5-3-5-6-5-3-5-|
    |-3-5-3-5-6-5-3-5-| x9
    |-3-5-3-5-6-5-3-5-|
    then
    |-3-5-3-5-6-5-3-8-3-5-3-5-6--3-5-3-5-8---|
    |-3-5-3-5-6-5-3-8-3-5-3-5-6--3-5-3-5-8---|
    |-3-5-3-5-6-5-3-8-3-5-3-5-6--3-5-3-5-8---|
     

    Тональность:

    Это должно быть в ТОП-листе! - Топ-лист композиций



    Назад
    Рекомендуем посмотреть другие песни исполнителя «Snot»:

    • Комменты Fb ()
    • Комменты ВК



    Добавить в Избранное Браузера
    Сохранить здесь Очистить


    x

    0


    +
    -

    +
    -

    -

    Авторизация





    Зарегистрироваться

    M

    Дата и время

    • 22:31:13
       

    Социальные ссылки


    Наши приложения

    • Muzbank App Play Market
    • Muzbank Amazon App
    • Muzbank Bitcoin13igjuWJj2R4cHiyZqP7Q3ggVvfXE9j82Q