MUZBANK



A MOST COMPLETE BANK OF MUSIC INFORMATION

МУЗЫКАЛЬНО-ИНФОРМАЦИОННЫЙ БАНК







    SSnot • Snooze Button (аккорды и текст - chords & lyrics)


    305

    Print

    Видео «Snooze Button (Snot)»

    Видео клипы к песне подбираются автоматически сайтом youtube. Возможны некоторые несоответствия клипов песне.

    ↑ Спрятать рекламу ↑





     
    
    
    Band: Snot
    	Song: Snooze Button
           Album: Get Some
       Tabbed By: Brian Mulholland (soad670@hotmail.com)
    
    Tuning: half step down, then drop d (C#,G#,C#,F#,Bb,Eb)
    
    
      Intro:
    
    |--0------------------------------------|
    |----3-----------10---------------------|
    |------1----------x---------------------|
    |-----------------8---------------------|
    |-----------------0---------------------|
    |-----------------0---------------------|
    
      Verse (w/ wah):
    
    |---------7------|
    |---------7------|
    |---5h7-x-7------|
    |----------------|
    |----------------|
    |----------------|
    
      Fill 1:
    
    |------------------------------|---------------------------|
    |--10-10-x-x-10-10-x-x-10-x-10-|--10-10-x-x-10-10-12-12-10-|
    |--10-10-x-x-10-10-x-x-10-x-10-|--10-10-x-x-10-10-12-12-10-|
    |--10-10-x-x-10-10-x-x-10-x-10-|--10-10-x-x-10-10-12-12-10-|
    |------------------------------|---------------------------|
    |------------------------------|---------------------------|
    
      Fill 2:
    
    |------------------------|
    |------------------------|
    |------------------------|
    |------------------------|
    |------------------------|
    |-0-3-0-3-0-3-0-3-0-5-6--|
    
      Chorus:
    
    |---------------------------------|
    |---------------------------------|
    |---------------------------------|
    |--0-0--0-3-0-5-0-6?-5h6-5--------|
    |--0-0--0-3-0-5-0-6--5h6-3--------|
    |--0-0--0-3-0-5-0-6?-5h6----------|
     

    Тональность:

    Это должно быть в ТОП-листе! - Топ-лист композиций



    Назад
    Рекомендуем посмотреть другие песни исполнителя «Snot»:

    • Комменты Fb ()
    • Комменты ВК



    Добавить в Избранное Браузера
    Сохранить здесь Очистить


    x

    0


    +
    -

    +
    -

    -

    Авторизация





    Зарегистрироваться

    M

    Дата и время

    • 05:05:22
       

    Социальные ссылки


    Наши приложения

    • Muzbank App Play Market
    • Muzbank Amazon App