MUZBANK



A MOST COMPLETE BANK OF MUSIC INFORMATION

МУЗЫКАЛЬНО-ИНФОРМАЦИОННЫЙ БАНК







    SSnow Patrol • Run (аккорды и текст - chords & lyrics)


    890

    Print

    Видео «Run (Snow Patrol)»

    Видео клипы к песне подбираются автоматически сайтом youtube. Возможны некоторые несоответствия клипов песне.

    ↑ Спрятать рекламу ↑






     
    
    
    7. Run
    
    VERSE
    
    e-------------
    b-1--1--0-----
    g-2--2--0-----
    D-2--3--0-----
    A-0--0--x-----
    E-------3-----
    
    e---------------------------------
    b---------------------------------
    g-9-9-9-9-9-7-7-7-7/4-4-4-4/2-2-2-
    D---------------------------------
    A---------------------------------
    E---------------------------------
    
    CHORUS
    C G Am F (You can play either normal or power)
    e-------------------------------------
    b-------------------------------------
    g-5----------------------------------
    D-5---5----7---3------------------------
    A-3---5----7---3------------------------
    E-----3----5---1------------------------
    
    SOLO
    
    e--------------------------|-
    b--------------------------|-
    g-10-10-10-9-9-7-7-9-9-----|-
    d--------------------------|-
    a--------------------------|-
    E--------------------------|-
    
    e--------------------------|-
    b--------------------------|-
    g-10-10-10-9-9-7-7-9-9-5-5-|-
    d--------------------------|-
    a--------------------------|-
    E--------------------------|-
    
    Repeat this bit ^ twice then:
    
    e--------------------------------------------------------------------------|
    b--------------------------------------------------------------------------|
    g-10-10-10-9-9-7-7-9-9-5-5-4-4-2-2-0-0-2-2-4-4-5-5-5-7-7-5-5-7-7-9-9-7-7-5-5
    d--------------------------------------------------------------------------|
    a--------------------------------------------------------------------------|
    E--------------------------------------------------------------------------|
    
    Now repeat the whole solo twice if your playing along with the album version,
    the single version only has one run of the solo.
     

    Тональность:

    Это должно быть в ТОП-листе! - Топ-лист композиций



    Назад
    Рекомендуем посмотреть другие песни исполнителя «Snow Patrol»:

    • Комменты Fb ()
    • Комменты ВК



    Добавить в Избранное Браузера
    Сохранить здесь Очистить


    x

    0


    +
    -

    +
    -

    -

    Авторизация





    Зарегистрироваться

    M

    Дата и время

    • 20:01:37
       

    Социальные ссылки


    Наши приложения

    • Muzbank App Play Market
    • Muzbank Amazon App