MUZBANK


МУЗЫКАЛЬНО-ИНФОРМАЦИОННЫЙ БАНК





SSoil • Broken Wings (аккорды и текст - chords & lyrics)


495

Print

Видео «Broken Wings (Soil)»

Видео клипы к песне подбираются автоматически сайтом youtube. Возможны некоторые несоответствия клипов песне.

↑ Спрятать рекламу ↑





Soil - Broken Wings [GUITAR TAB]


Tuning: Drop C (C G C F A D)this is a pretty dope song hope you like it

b= bend that note like a mother fucker

D|---------------------------------------------------------------------------||
A|---------------------------------------------------------------------------||
F|-----------------------b---------------------------------------------------||
C|---------3-----------3-5-5-3-5---------3-----------------------------------||
G|-3-5-3-5---5-3-5-3-5-----------3-5-3-5---5-3-5-5-3-0-----------------------||
C|-----------------------------------------------------6-5-3-----------------||

D|---------------------------------------------------------------------------||
A|---------b-----------------------------------------------------------------||
F|---------7-----------------------------------------------------------------||
C|-5-7-5-7---7-5-7-4-6-5-3-5-3-----------------------------------------------||
G|-----------------------------5-3-------------------------------------------||
C|---------------------------------------------------------------------------||

D|---------------------------------------------------------------------------||
A|---------------------------------------------------------------------------||
F|---------------------------------------------------------------------------||
C|-7--3-3-4-4-5-5-6-6--------------------------------------------------------||
G|-7--3-3-4-4-5-5-6-6--------------------------------------------------------||
C|-7--3-3-4-4-5-5-6-6--------------------------------------------------------||
 


Come On 

Here We Go 

Finding New Ways To Spread My Wings 
Let The Wind (?) again 
Burning in Prez's desires 
To faraway to take another step 

No matter (?) a second 
Melting all the mirrors 
Breaking whats left 
And do what is done is dead 
No matter (?) is taken 
Releasing all that matters 
Prop me up 
Drop me dead 
So Let Me Stick with it 

With Broken Wings I fly high 
Can't reach out to the other side 
What Broke Wings I fly high 
Lets break this man 

Running To Hide Myself 
From the minds they say again 
Ripping Out Of Myself 
I gotta break this other way 

Following it to the masters 
Rising All that matters 
Break it up and tell the lies 
Till The Truth is dead 
Breaking It To Myself 
Releasing All That Stuff Now 
Jev Up 
Jev   Up!

Live Again through something bad 
With Broken Wings I Fly High High 

Cant reach out to the other other side 
What Broken Wings I Fly High 
Lets Break This Man 

Fight to know that the wolves race 
Making whats right seem alright 
Small till the seek of nightlife 
What my next tomorrow says 
No Matter (?) is second 

Melting All That Matters 
Prop Me Up 
Drop Me Dead 
So let me stick with it 

Following it to the masters 
Rising All That Matters 
Make It Up 
Tell A Lie 
Till' the truth is dead 

With Broken Wings I Fly high 
Can't Reach Out To The Other Side 
What broken wings I fly high 
Lets break this man 

Lets Break This (x3)Man 
Of Broken Wings I Fly 

Lets Break This(x3) Man 
Of Broken Wings I Fly 

Lets Break This (x2) 
Of Broken WIngs I Fly 

Prop Me Up Drop Me Dead 

Тональность:

Это должно быть в ТОП-листе! - Топ-лист композиций



Назад
Рекомендуем посмотреть другие песни исполнителя «Soil»:

  • Комменты Fb ()
  • Комменты ВК



Добавить в Избранное Браузера
Сохранить здесь Очистить


x

0


+
-

+
-

-

Авторизация





Зарегистрироваться

M

Дата и время

  • 12:44:06
     

Социальные ссылки


Наши приложения

  • Muzbank App Play Market
  • Muzbank Amazon App