MUZBANK


МУЗЫКАЛЬНО-ИНФОРМАЦИОННЫЙ БАНК





SSoil • One Last Song (аккорды и текст - chords & lyrics)


317

Print

Видео «One Last Song (Soil)»

Видео клипы к песне подбираются автоматически сайтом youtube. Возможны некоторые несоответствия клипов песне.

↑ Спрятать рекламу ↑





Cm                    Bb    G#
Take a listen to your whole world
G                Cm 
Can you hear the screams?
Cm                    Bb    G#
All alone I wonder
G                Cm 
I wonder

Cm        Bb      G#           G   Eb
How much longer, is there time for me?

/Chorus:/
 Bb        G#
 One last song
 G                   Cm
 I want to give this world
 Bb        G#
 Before it′s gone
 G         Cm
 One last song

I don′t think we learned a thing
Our history repeats
Will we heed these lessons?
Slit our throats and watch us bleed
Is there time for me?

/Chorus:/
 One last song
 I want to give this world
 Before it′s gone
 One last song

/Bridge:/
Why can′t we? When will we?
I don′t think we want to learn
We won′t be fucking happy
Until we destroy it all

/Chorus:/
 One last song
 I want to give this world
 Before it′s gone
 One last song

 One last song
 I want to give this world
 Before it′s gone
 One last song

 One last song...


[Intro:] (Drop-D tuning)
e-----------------------------------
B-----------------------------------
G-----------------------------------
D--10-10-10----8-8-8----6-6-6-------
A--10-10-10----8-8-8----6-6-6-------
D--10-10-10----8-8-8----6-6-6-------

e-----------------------------------
B-----------------------------------
G-----------------------8-8-8-------
D--10-10-10----8-8-8----8-8-8-------
A--10-10-10----8-8-8----6-6-6-------
D--10-10-10----8-8-8----------------

Тональность:

Это должно быть в ТОП-листе! - Топ-лист композиций



Назад
Рекомендуем посмотреть другие песни исполнителя «Soil»:

  • Комменты Fb ()
  • Комменты ВК



Добавить в Избранное Браузера
Сохранить здесь Очистить


x

0


+
-

+
-

-

Авторизация





Зарегистрироваться

M

Дата и время

  • 04:40:27
     

Социальные ссылки


Наши приложения

  • Muzbank App Play Market
  • Muzbank Amazon App