MUZBANK


МУЗЫКАЛЬНО-ИНФОРМАЦИОННЫЙ БАНК





SSoilwork • Let This River Flow (аккорды и текст - chords & lyrics)


672

Print

Видео «Let This River Flow (Soilwork)»

Видео клипы к песне подбираются автоматически сайтом youtube. Возможны некоторые несоответствия клипов песне.

↑ Спрятать рекламу ↑





Once I lost it
It took hold of me
Once again
Lost and left to see

What was there
Wouldn't let me be
Spoiled with misery
Spoiled with energy

Let me be that one
Who will rise and return from sleep?
Give me strength to run
Become one with the remedy

No regrets, no compromise
Story will be told
Won't reject the cure this time
Let this river flow
Let this river flow
Let this river flow

As the river
Meets the sea
That's when the ghost
Becomes my belief

Will it wash up?
Serve in need?
Bring the harvest
Without greed

Bring the harvest without greed
Bring the harvest, let me feel
One for the core, one for the mind
One by one, make me run

Let me be that one
Who will rise and return from sleep
Give me strength to run
Become one with the remedy

No regrets, no compromise
Story will be told
Won't reject the cure this time
Let this river flow
Let this river flow

I will rise up, I will rise up
I will rise up once again
I will rise up, I will rise up
I will rise up once again

I will rise, I will rise again
I will rise, I will rise again

So clear to me yesterday
So clear once for all
It was there almost watching me
Became one with the fall

What if the best of me
Will say that I won't recall?
If those empty witnesses
Won't say nothing at all

No regrets, no compromise
Story will be told
Won't reject the cure this time
Let this river flow
Let this river flow
Let this river flow


 
C#||--------------0----|--0------------|-----------------0--|
G#||-----------8-------|---------------|--------------7-----|
E ||--------0----------|---------------|-----------0--------|
B ||-----9-------------|---------------|--------7-----------|
F#||--7----------------|---------------|-----5--------------|
B ||-------------------|---------------|--------------------|


     
--------------0----|--0------------|---------------|---------------|
-----------5-------|---------------|---------------|---------------|
--------0----------|---------------|---------------|---------------|
-----5-------------|---------------|---------------|---------------|
--3----------------|---------------|---------------|---------------|
-------------------|---------------|---------------|---------------|


    
--------------0----|--0------------|-----------------0--|--------------0----|
-----------8-------|---------------|--------------7-----|-----------5-------|
--------0----------|---------------|-----------0--------|--------0----------|
-----9-------------|---------------|--------7-----------|-----5-------------|
--7----------------|---------------|-----5--------------|--3----------------|
-------------------|---------------|--------------------|-------------------|


  
--0------------|---------------|---------------|--0----0--0--0--0--|
---------------|---------------|---------------|--8----8--8--8--8--|
---------------|---------------|---------------|--0----0--0--0--0--|
---------------|---------------|---------------|--9----9--9--9--9--|
---------------|---------------|---------------|--7----7--7--7--7--|
---------------|---------------|---------------|-------------------|



--0----0--0--0--0--|--0----0--0--0--0--|--0----0--0--0--0--|--0----0--0--0--0--|
--8----8--8--8--8--|--8----8--8--8--8--|--7----7--7--7--7--|--5----5--5--5--5--|
--0----0--0--0--0--|--0----0--0--0--0--|--0----0--0--0--0--|--0----0--0--0--0--|
--9----9--9--9--9--|--9----9--9--9--9--|--7----7--7--7--7--|--5----5--5--5--5--|
--7----7--7--7--7--|--7----7--7--7--7--|--5----5--5--5--5--|--3----3--3--3--3--|
-------------------|-------------------|-------------------|-------------------|

......


   
--0----0--0--0--0--|--0----0--0--0--0--|---------------|--------------------|
--7----7--7--7--7--|--7----7--7--7--7--|---------------|--------------------|
--0----0--0--0--0--|--0----0--0--0--0--|---------------|--------------------|
--7----7--7--7--7--|--7----7--7--7--7--|---------------|--7--9--L--9--L--7--|
--5----5--5--5--5--|--5----5--5--5--5--|---------------|--5--7--L--7--L--5--|
-------------------|-------------------|---------------|--------------------|


  
--------------------|---------------------|---------------------|
--------------------|---------------------|---------------------|
--------------------|---------------------|---------------------|
--9\----------------|--7--9--L--9--L------|---------------------|
--7\----2-----2-----|--5--7--L--7--L------|---------------------|
--------2-----2-----|-----------------0h--|--2p--0--2--5--4--0--|


  
-------------------|-------------------|-------------------|-------------------|
-------------------|-------------------|-------------------|-------------------|
--5----5--5--------|--5----5--5--------|--4----4--4--------|-------------------|
--5----5--5--5--5--|--5----5--5--5--5--|--5----5--5--------|--5----5--5--------|
--3----3--3--3--3--|--3----3--3--3--3--|--2----2--2--------|--5----5--5--------|
-------------------|-------------------|-------------0--0--|--5----5--5--0--0--|


  
--------------------|-----------------|--------------------|
--------------------|-----------------|--------------------|
--------------------|-----------------|--------------------|
--5--5--L--5--L--5--|--5\-------------|--5--5--L--5--L--5--|
--2--3--L--3--L--2--|--3\-------------|--2--3--L--3--L--2--|
--------------------|-----------------|--------------------|


   
--------------------|-----------------|---------------|----------------|
--------------------|-----------------|--3------------|----------------|
--------------------|-----------------|--2------------|----------------|
--5-----------------|-----------------|--0------------|----------------|
--3----3S--2--------|-----------------|--0------------|----------------|
--------------5--4--|--0------0----0--|--0------------|--0------0------|


 
-----------------|--------------------|--------------------|
-----------------|--------------------|--------------------|
-----------------|--------------------|--------------------|
-----------------|--7--9--L--9--L--7--|--9\----------------|
-----------------|--5--7--L--7--L--5--|--7\----2-----2-----|
--0----0----0----|--------------------|--------2-----2-----|


  
---------------------|--------------------|-------------------|
---------------------|--------------------|-------------------|
---------------------|--------------------|--5----5--5--------|
--7--9--L--9--L------|--------------------|--5----5--5--5--5--|
--5--7--L--7--L------|--------------------|--3----3--3--3--3--|
-----------------0h--|--5--4--5--7--5--0--|-------------------|


  
-------------------|-------------------|-------------------|
-------------------|-------------------|-------------------|
--5----5--5--------|--4----4--4--------|-------------------|
--5----5--5--5--5--|--5----5--5--------|--5----5--5--------|
--3----3--3--3--3--|--2----2--2--------|--5----5--5--------|
-------------------|-------------0--0--|--5----5--5--0--0--|


   
--------------------|-----------------|--------------------|----------------|
--------------------|-----------------|--------------------|----------------|
--------------------|-----------------|--------------------|----------------|
--5--5--L--5--L--5--|--5\-------------|--5--5--L--5--L--5--|--5-------------|
--2--3--L--3--L--2--|--3\-------------|--2--3--L--3--L--2--|--3-------------|
--------------------|-----------------|--------------------|---------0------|


    
----------------|----------------|---------------|-----------------|
----------------|----------------|--3------------|--L--------------|
----------------|----------------|--2------------|--L--------------|
----------------|----------------|--0------------|--L--------------|
--0------0------|--0------0------|--0------------|--L--------------|
--0------0------|--0------0------|--0------------|--L----0----0----|


      
  
--------------------|--------------------|--------------------|
--------------------|--------------------|--------------------|
--------------------|--------------------|--------------------|
-----------2--------|-----------2--------|-----------2--------|
--------------------|--------------------|--------------------|
--0--1--2-----0-----|--0--1--2-----0-----|--0--1--2-----0-----|


     
  
--------------------|--------------------|--------------------|
--------------------|--------------------|--------------------|
--------------------|--------------------|--------------------|
-----------2--------|--------------------|--------------------|
--------------------|--------------------|--------------------|
--0--1--2-----0-----|--5--5--5--4--0-----|--5--5--5--4--0-----|


        
  
--------------------|--------------------|--------------------|
--------------------|--------------------|--------------------|
--------------------|--------------------|--------------------|
--------------------|--------------------|-----------2--------|
--------------------|--------------------|--------------------|
--4--4--4--2--0-----|--4--4--4--2--0-----|--0--1--2-----0-----|

        
  
--------------------|--------------------|--------------------|
--------------------|--------------------|--------------------|
--------------------|--------------------|--------------------|
-----------2--------|-----------2--------|-----------2--------|
--------------------|--------------------|--------------------|
--0--1--2-----0-----|--0--1--2-----0-----|--0--1--2-----0-----|


    

--------------------|--------------------|--------------------|
--------------------|--------------------|--------------------|
--------------------|--------------------|--------------------|
--------------------|--------------------|--------------------|
--------------------|--------------------|--------------------|
--5--5--5--4--0-----|--5--5--5--4--0-----|--4--4--4--2--0-----|


    
--------------------|--------5-----5-----|--------5-----5-----|
--------------------|--------------------|--------------------|
--------------------|-----7-----7-----7--|-----7-----7-----7--|
--------------------|--5-----------------|--5-----------------|
-----------------2--|--------------------|--------------------|
--4--4--4--2--0-----|--------------------|--------------------|


 
--------7-----7-----|--------7-----7-----|----------10------10------|
--------------------|--------------------|--------------------------|
-----9-----9-----9--|-----9-----9-----9--|------12------12------12--|
--5-----------------|--5-----------------|--10----------------------|
--------------------|--------------------|--------------------------|
--------------------|--------------------|--------------------------|



----------10------10------|---------8------8------|---------8------8------|
--------------------------|-----------------------|-----------------------|
------12------12------12--|-----12-----12-----12--|-----12-----12-----12--|
--10----------------------|--9--------------------|--9--------------------|
--------------------------|-----------------------|-----------------------|
--------------------------|-----------------------|-----------------------|



--------5-----5-----|--------5-----5-----|--------7-----7-----|
--------------------|--------------------|--------------------|
-----7-----7-----7--|-----7-----7-----7--|-----9-----9-----9--|
--5-----------------|--5-----------------|--5-----------------|
--------------------|--------------------|--------------------|
--------------------|--------------------|--------------------|


--------7-----7-----|----------10------10------|----------10------10------|
--------------------|--------------------------|--------------------------|
-----9-----9-----9--|------12------12------12--|------12------12------12--|
--5-----------------|--10----------------------|--10----------------------|
--------------------|--------------------------|--------------------------|
--------------------|--------------------------|--------------------------|

  
--------7-----7-----|----------------------|---------10------10------|
--------------------|--------12-----12-----|-------------------------|
-----9-----9-----9--|-----9------9------9--|-----12------12------12--|
--5-----------------|--9-------------------|--9----------------------|
--------------------|----------------------|-------------------------|
--------------------|----------------------|-------------------------|

       
---------10------10------|---------10------10------|---------10------------|
-------------------------|-------------------------|-----------------8--7--|
-----12------12------12--|-----12------12------12--|-----12------12--------|
--9----------------------|--9----------------------|--9--------------------|
-------------------------|-------------------------|-----------------------|
-------------------------|-------------------------|-----------------------|


---------10------10------|---------10------10------|-------------------------|
-------------------------|-------------------------|---------10------10------|
-----12------12------12--|-----12------12------12--|-----12------12------12--|
--9----------------------|--9----------------------|--9----------------------|
-------------------------|-------------------------|-------------------------|
-------------------------|-------------------------|-------------------------|

 
-------------------------|---------10------10------|---------10------10------|
-------------------------|-------------------------|-------------------------|
-----12--11--12--11--12--|-----12------12------12--|-----12------12------12--|
--9----------------------|--9----------------------|--9----------------------|
-------------------------|-------------------------|-------------------------|
-------------------------|-------------------------|-------------------------|


 
---------10------10------|---------10------------|---------10------10------|
-------------------------|-----------------8--7--|-------------------------|
-----12------12------12--|-----12------12--------|-----12------12------12--|
--9----------------------|--9--------------------|--9----------------------|
-------------------------|-----------------------|-------------------------|
-------------------------|-----------------------|-------------------------|


---------10------10s--12--|-------------------------|-------------------------|
--------------------------|---------10------10------|-------------------------|
-----12------12-----------|-----12------12------12--|-----12--11--12--11--12--|
--9-----------------------|--9----------------------|--9----------------------|
--------------------------|-------------------------|-------------------------|
--------------------------|-------------------------|-------------------------|


--------------------|--------------------|---------------------|
--------------------|--------------------|---------------------|
--------------------|--------------------|---------------------|
--7--9--L--9--L--7--|--9\----------------|--7--9--L--9--L------|
--5--7--L--7--L--5--|--7\----2-----2-----|--5--7--L--7--L------|
--------------------|--------2-----2-----|-----------------0h--|


Тональность:

Это должно быть в ТОП-листе! - Топ-лист композиций



Назад
Рекомендуем посмотреть другие песни исполнителя «Soilwork»:

  • Комменты Fb ()
  • Комменты ВК



Добавить в Избранное Браузера
Сохранить здесь Очистить


x

0


+
-

+
-

-

Авторизация





Зарегистрироваться

M

Дата и время

  • 05:28:03
     

Социальные ссылки


Наши приложения

  • Muzbank App Play Market
  • Muzbank Amazon App