MUZBANK



A MOST COMPLETE BANK OF MUSIC INFORMATION

МУЗЫКАЛЬНО-ИНФОРМАЦИОННЫЙ БАНК







    SSoilwork • Razorlives (аккорды и текст - chords & lyrics)


    67

    Print

    Видео «Razorlives (Soilwork)»

    Видео клипы к песне подбираются автоматически сайтом youtube. Возможны некоторые несоответствия клипов песне.

    ↑ Спрятать рекламу ↑





    In the jar born to die
    feeling sick couse my lifes gone to far
    blood will rain, so indane
    liers will get burned
    onjection overruled
    lifes a mirror who wont get fooled
    a story of another kind
    always so hard to find
    
    [Chorus:]
    Razorlives!
    liers will get burned
    Razorlives!
    history will turn
    Razorlives!
    liers will get burned
    Razorlives!
    history will turn
    
    Meaning out of sight
    can life be so pure, so bright?
    terror in your soul
    speaking to a wall whos already been told
    if life is life and eath is death
    why do I feel my destinys breath
    seeing through different eyes
    cause were all devils in disguise!
    
    [Chorus(2x):]
    Razorlives!
    liers will get burned
    Razorlives!
    history will turn
    Razorlives!
    liers will get burned
    Razorlives!
    history will turn
    
    
    Tune Down 2.5 steps to B
    
     Intro
    |--------------------------------------------------------------------------|
    |--------------------------------------------------------------------------|GTR
    |---------/5------------------5--4---------------/5------------------------| 1
    |-------------4---------------------5~---------------4-------------4-------|
    |-2--------------2~----2-2---------------2--------------2~----2-2--2--5-4--|
    |-0---0----------------0-0---------------0---0----------------0-0-----3-2--|
    |     .                . .                   .                . .     . .  |
    |                                                                          |
    |--------------------------------------------------------------------------|
    |--------------------------------------------------------------------------|GTR
    |------------------------------------------------/5------------------------| 2
    |----------------------------------------------------4-------------4-------|
    |----------------------------------------2--------------2~----2-2--2--5-4--|
    |----------------------------------------0---0----------------0-0-----3-2--|
                                                 .                . .     . .
    
    
    |--------------------------------------------------------------------------|
    |-------------------------------------------------------------------3------|GTR
    |---------/5------------------5--4---------------/5-----------------3------| 1
    |-------------4---------------------5~---------------4--------------3------|
    |-2--------------2~----2-2---------------2--------------2~----2-2---1------|
    |-0---0----------------0-0---------------0---0----------------0-0----------|
    |     .                . .                   .                . .          |  
    |                                                                          |
    |--------------------------------------------------------------------------|
    |--------------------------------------------------------------------------|GTR
    |---------/5------------------5--4---------------/5-----------------3------| 2
    |-------------4---------------------5~---------------4--------------3------|
    |-2--------------2~----2-2---------------2--------------2~----2-2---1------|
    |-0---0----------------0-0---------------0---0----------------0-0----------|
          .                . .                   .                . .      
    
    
    |--------------------------------------------------------------------------|
    |--------------------------------------------------------------------------|GTR
    |---------/5------------------5--4---------------/5------------------------| 1
    |-------------4---------------------5~---------------4-------------4-------|
    |-2--------------2~----2-2---------------2--------------2~----2-2--2--5-4--|
    |-0---0----------------0-0---------------0---0----------------0-0-----3-2--|
    |     .                . .                   .                . .     . .  |
    |                                                                          |
    |---------/3--2----------------------------------/3--2--3~-----------------|
    |----------------5~-----------5--3-----------------------------------------|GTR
    |-----------------------------------4~-------------------------------------| 2
    |------------------------------------------------------------------4-------|
    |-2--------------------2-2---------------2--------------------2-2--2--5-4--|
    |-0---0----------------0-0---------------0---0----------------0-0-----3-2--|
          .                . .                   .                . .     . .
    
    
    |--------------------------------------------------------------------------|
    |--------------------------------------------------------------------------|GTR
    |---------/5------------------5--4---------------/5------------------------| 1
    |-------------4---------------------5~---------------4-------------4-------|
    |-2--------------2~----2-2---------------2--------------2~----2-2--2--5-4--|
    |-0---0----------------0-0---------------0---0----------------0-0-----3-2--|
    |     .                . .                   .                . .     . .  |
    |                                                                          |
    |---------/3--2----------------------------------/3--2--3~-----------------|
    |----------------5~-----------5--3-----------------------------------------|GTR
    |-----------------------------------4~-------------------------------------| 2
    |------------------------------------------------------------------4-------|
    |-2--------------------2-2---------------2--------------------2-2--2--5-4--|
    |-0---0----------------0-0---------------0---0----------------0-0-----3-2--|
          .                . .                   .                . .     . .
    
    
    |--------------------|
    |--------------------|GTR
    |--------------------| 1
    |--------------------|
    |-2----------(2)-----|
    |-0----------(0)-----|
    |                    |
    |                    |
    |--------------------|
    |--------------------|GTR
    |--------------------| 2
    |--------------------|
    |-2----------(2)-----|
    |-0----------(0)-----|
    
    
    
     Riff 1
    |---------------------------------------|
    |---------------------------------------|GTRS
    |---------------------------------------|1&2
    |---------------------------------------|
    |-7---7---7----5--5-5---7--7-7---5--5-5-|
    |--00--00----3--33-3--5--55-5--2--22-2--|
    |  ..  ..    .  .. .  .  .  .  .  .. .  |
    |                                       |
    |---------------------------------------|
    |---------------------------------------|GTR
    |---------------------------------------| 2
    |---------------------------------------|
    |-2-------------------------------------|
    |-0-------------------------------------|
    
    
    |------------------------------------------|
    |------------------------------------------|GTRS
    |------------------------------------------|1&2
    |------------------------------------------|
    |-7---7---7----5--5-5---7--7-7-----5--4--7-|
    |--00--00----3--33-3--5--55-5---3----------|
    |  ..  ..    .  .. .  .  .  .              |
    |                                          |
    |------------------------------------------|
    |------------------------------------------|GTR
    |------------------------------------------| 2
    |----------------------------------5--4--7-|
    |-2-------------------7---------3----------|
    |-0-------------------5--------------------|
    
     Riff 1.a                  Play 3 Times
    |---------------------------------------|
    |---------------------------------------|GTRS
    |---------------------------------------|1&2
    |---------------------------------------|
    |-7---7---7----5--5-5---7--7-7---5--5-5-|
    |--00--00----3--33-3--5--55-5--2--22-2--|
    |  ..  ..    .  .. .  .   . .  .   . .  |
    
    
    |------------------------------------------|
    |------------------------------------------|GTRS
    |------------------------------------------|1&2
    |----------------------------------5--4--7-|
    |-7---7---7----5--5-5---7--7-7--3----------|
    |--00--00----3--33-3--5--55-5--------------|
    |  ..  ..    .   . .  .   . .              
    
     Riff 2                                  Play 2 Times
    |----------------------------------------------------|
    |----------------------------------------------------|GTRS
    |----------------------------------------------------|1&2
    |------9---7---5--4~--------9---7---5--4~------------|
    |-------------------------------------------555--7~--|
    |-000----0---0---------000----0---0------------------|
      ...    .   .         ...    .   .          
    
    
    |----------------------------------------------|
    |----------------------------------------------|GTRS
    |----------------------------------------------|1&2
    |------9---7---5--4~------------4/5-------5/7--|
    |--------------------------2222-2/3--3333-3/5--|
    |-000----0---0---------------------------------|
      ...    .   .             ....      .... 
    
    
    
     Riff 2.a                              Play 2 Times
    |----------------------------------------------------|
    |----------------------------------------------------|GTR
    |-----12--11---9--7~-------12--11---9--7~------------| 1
    |-------------------------------------------777--9~--|
    |----------------------------------------------------|
    |-000----0---0---------000----0---0------------------|
    | ...    .   .         ...    .   .                  |   
    |                                                    |                                                   
    |----------------------------------------------------|
    |----------------------------------------------------|GTR
    |----------------------------------------------------| 2
    |------9---7---5--4~--------9---7---5--4~------------|
    |-------------------------------------------555--7~--|
    |-000----0---0---------000----0---0------------------|
      ...    .   .         ...    .   .         
      
    |-----------------------------------------|
    |-----------------------------------------|GTR
    |-----12--11---9--7~----------------------| 1
    |--------------------------4/5-------5/7--|
    |---------------------2222-2/3--3333-3/5--|
    |-000----0---0----------------------------|
    | ...    .   .        ....      ....      | 
    |                                         |
    |-----------------------------------------|
    |-----------------------------------------|GTR
    |-----------------------------------------| 2
    |------9---7---5--4~-------4/5-------5/7--|
    |---------------------2222-2/3--3333-3/5--|
    |-000----0---0----------------------------|
      ...    .   .        ....      .... 
    
    
     Play Riff 1.a    3 Times
     Play Riff 2      2 Times
     Play Riff 2.a    2 Times 
     Play Riff 1      1 Time
    
    
     
     Riff 3         Play 2 Times
    |---------------------------|
    |---------------------------|GTRS
    |---------------------------|1&2
    |-3-------------------5-----|
    |-3-------------------5-----|
    |-1-------------------3-----|
    
    
     
     Riff 4
    |-------------------------------------------------------------|
    |-------------------------------------------------------------|GTR
    |-------------------------------------------------------------| 1
    |----3-----3-----3-----3-----3-----5-----5----5-----5-----5---|
    |-------------------------------------------------------------|
    |-1----1-1---1-1---1-1---1-1----3----3-3---3-3--3-3---3-3-----|
    | .    . .   . .   . .   . .    .    . .   . .  . .   . .     |
    |                                                             |
    |-------------------------------------------------------------|
    |-------------------------------------------------------------|GTR
    |-------------------------------------------------------------| 2
    |----7-----7-----7-----7-----7-----9-----9----9-----9-----9---|
    |-------------------------------------------------------------|
    |-5----5-5---5-5---5-5---5-5----7----7-7---7-7--7-7---7-7-----|
      .    . .   . .   . .   . .    .    . .   . .  . .   . .
    
    
    |-------------------------------------------------------------|
    |-------------------------------------------------------------|GTR
    |-------------------------------------------------------------| 1
    |----3-----3-----3-----3-----3-----5-----5----5-----5-----5---|
    |-------------------------------------------------------------|
    |-1----1-1---1-1---1-1---1-1----3----3-3---3-3--3-3---3-3-----|
    | .    . .   . .   . .   . .    .    . .   . .  . .   . .     |
    |                                                             |
    |-------------------------------------------------------------|
    |-------------------------------------------------------------|GTR
    |-------------------------------------------------------------| 2
    |---10----10----10----10----10----12----12----12----12----12--|
    |------------------------------------*------------------------|
    |-8----8-8---8-8---8-8---8-8---10---1010--1010--1010--1010----|
      .    . .   . .   . .   . .    .    . .   . .   . .   . .
    
      * - These are ten′s not ones′ or zero′s
    
    
     Solo
    
     
     Riff 5   Play With Solo
    |----------------------------------------------------------------------|
    |----------------------------------------------------------------------|GTR
    |----------------------------------------------------------------------| 2
    |------------------------4--5--4-------5--2----------------------------|
    |-2--2-2---2----7--5--7-----------3~--------2~---7--5-5--2----2-2---2--|
    |-0--0-0---0-------------------------------------5--3-3--0----0-0---0--|
         .                                           .  . .       .
    
    
    |---------------------------------------------------------|
    |---------------------------------------------------------|GTR
    |---------------------------------------------------------| 2
    |-----------4--5--4-------5--2--7b9~---7--5--4------------|
    |--7--5--7-----------3~-------------------------2----2-2--|
    |-----------------------------------------------0----0-0--|
                                                         .   
    
     
     Riff 6   Play  With Solo    Play 2 Times                                         
    |-----------------------------------------|
    |-----------------------------------------|GTR
    |-----------------------------------------| 2
    |-/9-------------/9-----------------------|
    |-/7----2--5-----/7----2--3--2--3--5---5--|
    |-------0--3-----------0--1--0--1--3-0-3--|
                                         .
    
    
     Riff 7        Play 4 Times
    |--------------------------|
    |--------------------------|GTR
    |--------------------------| 1
    |-----3-2h3----------------|
    |-2----------2---0--0---2--|
    |-0-0--------3-0-2--2h3-3--|
        .          .     
    
     
     Riff 8    Play With 2nd Solo                     Play 4 Times
    |---------------------------------------------------------------|
    |---------------------------------------------------------------|GTR
    |---------------------------------------------------------------| 2
    |--------12-11--9---7/9-----11--9-----------12-11--9-----4---5--|
    |-2------10--9--7---5/7------9--7----2------10--9--7-----2---3--|
    |-0-000-----------------000----------0-000----------------------|
        ...                 ...          . ...
    
    
     Riff 9    
    |----------------------------------------------------|
    |------------------------------------------- --------|GTR
    |------9---7---5--4~--------9---7---5--4~------------| 1
    |-------------------------------------------555--7~--|
    |-000----0---0---------000----0---0------------------|
    |----------------------------------------------------|
    | ...    .   .         ...    .   .                  |
    |                                                    |
    |----------------------------------------------------|
    |----------------------------------------------------|GTR*
    |----------------------------------------------------| 2 
    |----------------------------------------------------|
    |----------------------------------------------------|
    |----------------------------------------------------|
      
     *Not sure about the 2nd guitar
    
    |---------------------------------------------------------------|
    |---------------------------------------------------------------|GTR 
    |------9---7---5--4~--------9---7---5--4~-----------------------| 1 
    |-----------------------------------------------9/10------10/12-|
    |-000----0---0---------000----0---0--------7777-7/-8-8888--8/10-|
    |---------------------------------------------------------------|
    | ...    .   .         ...    .   .        ....      ....       |
    |                                                               |
    |---------------------------------------------------------------|
    |---------------------------------------------------------------|GTR*
    |---------------------------------------------------------------| 2
    |---------------------------------------------------------------|
    |---------------------------------------------------------------|
    |---------------------------------------------------------------|
      *Not sure about the 2nd guitar
    
    
     Riff 1.b
    |---------------------------------------|
    |---------------------------------------|GTRS
    |---------------------------------------|1&2
    |---------------------------------------|
    |-7---7---7----5--5-5---7--7-7---5--5-5-|
    |--00--00----3--33-3--5--55-5--2--22-2--|
    |  ..  ..    .  .. .  .  .  .  .  .. .   
    
    |------------------------------------------|
    |------------------------------------------|GTRS
    |------------------------------------------|1&2
    |------------------------------------------|
    |-7---7---7----5--5-5---7--7-7-----5--4--7\|
    |--00--00----3--33-3--5--55-5---3----------|
    |  ..  ..    .  .. .  .  .  .
    

    Тональность:

    Это должно быть в ТОП-листе! - Топ-лист композиций



    Назад
    Рекомендуем посмотреть другие песни исполнителя «Soilwork»:

    • Комменты Fb ()
    • Комменты ВК



    Добавить в Избранное Браузера
    Сохранить здесь Очистить


    x

    0


    +
    -

    +
    -

    -

    Авторизация





    Зарегистрироваться

    M

    Дата и время

    • 06:55:17
       

    Социальные ссылки


    Наши приложения

    • Muzbank App Play Market
    • Muzbank Amazon App