MUZBANK



A MOST COMPLETE BANK OF MUSIC INFORMATION

МУЗЫКАЛЬНО-ИНФОРМАЦИОННЫЙ БАНК







    SSoilwork • Weapon Of Vanity (аккорды и текст - chords & lyrics)


    905

    Print

    Видео «Weapon Of Vanity (Soilwork)»

    Видео клипы к песне подбираются автоматически сайтом youtube. Возможны некоторые несоответствия клипов песне.

    ↑ Спрятать рекламу ↑





    They play divine as immortal sons
    Pulling triggers and then they switch and run
    As long as you have nothing to add, they run the show..
    How? Can you get a single shot with a life like that
    So now, will you ever conclude as it turns to a lack?
    Deceivement, believe it... Do you feel it flow?
    
    As a weapon of your vanity
    They crave for a soulaching desire
    (won′t you play with me..)
    As time′s standing still, they′ve praised a liar
    
    So now... let me get a single minute of your precious time
    So how... do you feel now as the vanity is easy to find?
    Deceivement, believe it... can you feel it grow?
    
    They crave for a soulaching desire
    (won′t you play with me..)
    As time′s standing still, they′ve praised a liar
    
    I swear, you′re nothing like me
    And it will never set you free
    You won′t be able to be down there alone
    They fill you up til′ you′re ripped and torn
    Your life is out there for disposal
    Knocked out, before you′re ready to leave
    Cause I swear, you′re nothing like me!
    
    As I reckon you insanity
    They crave for a soulaching desire
    (won′t you play with me..)
    As time′s standing still, they′ve praised a liar
    
    They crave for a soulaching desire
    (won′t you stay with me..)
    As time′s standing still, they′ve praised a liar
    
    
    
    Tuning: B Standard (B,E,A,D,F#,B)
    
    Notes: Only main rhythm parts here.
    
    Riff 1
    |-------------------------------------------|
    |-------------------------------------------|
    |-------------------------------------------|
    |--------------14------------------14-------|
    |-------------------------------------------|
    |-12-10-0-12-0----0-12-0-10-0-12-0----12-10-|
    
    |-------------------------------------------|
    |-------------------------------------------|
    |-------------------------------------------|
    |--------------14---------------------------|
    |-------------------------------------------|
    |-12-10-0-12-0----0-12-0-10-0-12-0-13-12-10-|
    
    |-------------------------------------------|
    |-------------------------------------------|
    |-------------------------------------------|
    |--------------14------------------14-------|
    |-------------------------------------------|
    |-12-10-0-12-0----0-12-0-10-0-12-0----12-10-|
    
    |--------------------------------|
    |--------------------------------|
    |--------------------------------|
    |--------------------------7-7-7-|
    |---8\7---8\7---5----------5-5-5-|
    |-0-6\5-0-6\5-0-3--0-3-0-3-------|
      *     *     *    * * * *
    
    Riff 2
    |---------------------------------------|
    |---------------------------------------|
    |-9-9-9-9-9-9-----9--9--9--9--9--9------|
    |-9-9-9-9-9-9-x-x-10-10-10-10-10-10-x-x-|
    |-7-7-7-7-7-7-x-x-7--7--7--7--7--7--x-x-|
    |-------------x-x-------------------x-x-|
    
    Play Riff 1   "They play as divined immortal sons..."
    Play Riff 2   "Deceivement, believe it, can you feel it flow?"
    
    Riff 2a   "As a weapon of your vanity..."
    |----------|
    |----------|
    |----------|
    |-------7~-|
    |---9---7~-|
    |-0-7-0-5~-|
      *   *
    
    Riff 3   "They crave for a soulaching desire..."
    |-----------------------------------------------------|
    |-----------------------------------------------------|
    |-------12-------11---------------12-------11---------|
    |-------10-------10-9\7-7-7-------10-------10-9\7-7-7-|
    |-------7--------7--7\5-5-5-------7--------7--7\5-5-5-|
    |-0-0-0----0-0-0------------0-0-0----0-0-0------------|
      * * *    * * *            * * *    * * *
    
    |--------------------------------------------------------|
    |--------------------------------------------------------|
    |--------------------------------------------------------|
    |------------------------------------------------9\7-7-7-|
    |-10--10-10-10-10--10-10-10-10--7-7-7-7--7-7-7-7-7\5-5-5-|
    |-8---8--8--8--8---8--8--8--8---5-5-5-5--5-5-5-5---------|
                                    * * *
    
    Play Riff 1    "So now, let me get a single minute..."
    Play Riff 2    "Deceivement, believe it, can you feel it flow?"
    Play Riff 2a
    Play Riff 3    "They crave for a soulaching desire..."
    
    Riff 4
    |------------------------------------------------------------|
    |------------------------------------------------------------|
    |------------------------------------------------------------|
    |------------------------------------------------------------|
    |---7-5--------------------------7-5-----------------------5-|
    |-0-----0-8-7-0-7-5-0-3-0-2-3--0-----0-8-7-0-7-5-0-3-0-2-3---|
    
    |----------------------------------------------------------|
    |----------------------------------------------------------|
    |----------------------------------------------------------|
    |--------------------------------7-7-7-7-7---7-7-7-7-------|
    |---7-5--------------------------5-5-5-5-5---4-4-4-4---5-5-|
    |-0-----0-8-7-0-7-5-0-3-0-2-3--0-----------0---------0-3-3-|
                                               *         *
    
    Riff 5
    |------------------------------------------------------------------|
    |------------------------------------------------------------------|
    |------------------------------------------------------------------|
    |---9\7-----------------------------9\7--------------------------7-|
    |---7\5---10\9---9\7---5\4---4/5----7\5---10\9---9\7---5\4---4/5-5-|
    |-0-----0-8\\7-0-7\5-0-3\2-0-2/3--0-----0-8\\7-0-7\5-0-3\2-0-2/3---|
            *      *     *     *            *      *     *     *
    
    |-------------------------------------------------------------|
    |-------------------------------------------------------------|
    |-------------------------------------------------------------|
    |---9\7-----------------------------7-7-7-7-7---7-7-7-7-------|
    |---7\5---10\9---9\7---5\4---4/5----5-5-5-5-5---4-4-4-4---5-5-|
    |-0-----0-8\\7-0-7\5-0-3\2-0-2/3--0-----------0---------0-3-3-|
            *      *     *     *                  *         *
    
    Play Riff 2
    Play Riff 2a
    Play Riff 3   "They crave for a soulaching desire..."
    Play Riff 1

    Тональность:

    Это должно быть в ТОП-листе! - Топ-лист композиций



    Назад
    Рекомендуем посмотреть другие песни исполнителя «Soilwork»:

    • Комменты Fb ()
    • Комменты ВК



    Добавить в Избранное Браузера
    Сохранить здесь Очистить


    x

    0


    +
    -

    +
    -

    -

    Авторизация





    Зарегистрироваться

    M

    Дата и время

    • 06:55:08
       

    Социальные ссылки


    Наши приложения

    • Muzbank App Play Market
    • Muzbank Amazon App