MUZBANK



A MOST COMPLETE BANK OF MUSIC INFORMATION

МУЗЫКАЛЬНО-ИНФОРМАЦИОННЫЙ БАНК







    SSomething Corporate • I Woke Up In A Car (аккорды и текст - chords & lyrics)


    298

    Print

    Видео «I Woke Up In A Car (Something Corporate)»

    Видео клипы к песне подбираются автоматически сайтом youtube. Возможны некоторые несоответствия клипов песне.

    ↑ Спрятать рекламу ↑





     
    
    
    Something Corporate - I Woke Up In a Car
            by  chris G.
    Standard Tuning
    
    Intro
    e|--4---4---4---4----
    B|----2---2---2---2--
    G|-------------------
    D|-------------------  Pick back and forth 
    A|-------------------  a lot during intro and verse
    E|-------------------
    
    e|---------------------
    B|---------------------
    G|------3-------6------
    D|--4---3---6---6------  Play really light in the 
    A|--4---1---6---4------  background on clean
    E|--2-------4----------  each chord once
    
    Prechorus
    e|---------------------
    B|---------------------  
    G|------3-------6------  More pronounced Clean
    D|--4---3---6---6------  maybe mixed with a extremely
    A|--4---1---6---4------  small amount of distortion 
    E|--2-------4----------
       Here I am...
    
    Chorus
    e|----------------------
    B|----------------------
    G|------3-------6-------
    D|--4---3---6---6-6----- Lots of Distortion
    A|--4---1---6---4-6-----
    E|--2-------4-----4-----
    
    
    thats it!!!!!
     

    Тональность:

    Это должно быть в ТОП-листе! - Топ-лист композиций



    Назад
    Рекомендуем посмотреть другие песни исполнителя «Something Corporate»:

    • Комменты Fb ()
    • Комменты ВК



    Добавить в Избранное Браузера
    Сохранить здесь Очистить


    x

    0


    +
    -

    +
    -

    -

    Авторизация





    Зарегистрироваться

    M

    Дата и время

    • 12:20:32
       

    Социальные ссылки


    Наши приложения

    • Muzbank App Play Market
    • Muzbank Amazon App