MUZBANK



A MOST COMPLETE BANK OF MUSIC INFORMATION

МУЗЫКАЛЬНО-ИНФОРМАЦИОННЫЙ БАНК







    SSonata Arctica • Shy (аккорды и текст - chords & lyrics)


    925

    Print

    Видео «Shy (Sonata Arctica)»

    Видео клипы к песне подбираются автоматически сайтом youtube. Возможны некоторые несоответствия клипов песне.

    ↑ Спрятать рекламу ↑





     
    
    
    *************************************************
    * SONATA ARCTICA - SHY (From the EP: SUCCESSOR) *
    *************************************************
     Music and Words By: T.Kakko/J.Liimatainen
    
    Transcribed By: Niclas Buss
    Days tabbed: 8-9.10.2000
    email: nbuss@ironmaiden.com
    
    Please mail me if you can find mistakes!
    
    -----------------------------------------
    
     Tune down 1/2 step!
    								  Verse 2 (Guitar en
    E-------------------------------------------------------------------7--------5------|
    B------------------|--------------|--------------|--------------|-----8---8----7---7|
    G--Keyboard-Intro--|----Verse-1---|----Bridge----|----Chorus----|-------9--------7--|
    D------------------|-(Keyboards&)-|-(Keyboards&)-|-(Keyboards&)-|------------0------|
    A------------------|---(Vocals)---|---(Vocals)---|---(Vocals)---|---7---------------|
    E-----------------------------------------------------------------------------------|
    
     ters at (1:24) with Clean Sound)
    E--5--------7--------3--------5--------7--------7---------7--------5--------5------|
    B----5---5----8---8-----5---5----7---7----8---8----8---7~----8---8----7---7----5---5|
    G------5--------9---------5--------7--------9--------9---------9--------7--------5--|
    D------------------------------0------------------------------------0---------------|
    A--0--------7--------3-----------------7--------7---------7-----------------0------|
    E-----------------------------------------------------------------------------------|
    
    							 Bridge (1)
    E--7-----------------------------3--------/-5-------------------------------3-----|
    B----8---8--5-------/-7------------5---5------7---7---|--7-------/-8-----------5---|
    G------9-------5---5-----7---7--------5----------7-----|----8---8-----9---9-------5-|
    D----------------5---------7---------------------------|----------------9-----------|
    A--7---------3-------/-5---------3--------/-5---------|------6---/-7--------3-----|
    E---------------------------------------------------------7-------------------------|
    
    E----3--------2-------------------3--------3--------2-------------------3-------|
    B-5----5---5-----3---3-/-8------------5---5----5---5-----3---3--/-8-----------5----5|
    G--------5---------2-------9---9--------5--------5---------2--------9---9-----------|
    D--------------0-------------9-------------------------0--------------9-------------|
    A----------------------/-7---------3---------------------------/-7--------3----2--|
    E-----------------------------------------------------------------------------------|
    
    									   Interlude
    E--5--------/-5--------7--------8--------8---/-10)------------------------2)--/--4)-|
    B----5---5------7---7----8---8----8---8----8-/-10(-10~--|--------------|--3(--/--5(-|
    G------5----------7--------9--------9-------------------|----Chorus----|--2)--/--4)-|
    D-----------/-0--------------------------0--------------|-(Keyboards&)-|--4(--/--6(-|
    A--0-------------------7--------------------------------|---(Vocals)---|--5)--/--7)-|
    E-------------------------------8---------------------------------------------------|
    
    E-4----------------0-----/--1----1---1-----/--3----3---3-----3--3--3---3--3---------|
    B-5--5---1)---1---1--1--/--1----1---1--1--/--3----3---3--3--3--3--3---3--3-3---1--|
    G-4--4---2(---2---2--2--/--2----2---2--2--/--4----4---4--4--4--4--4---4--4-4---2--|
    D-6--6---2)---2---2--2--/--3----2---3--3--/--5----5---5--5--5--5--5---5--5-5---2--|
    A----7---0(---0------0--/--3----3------3--/--5----5------5-----------------5---0--|
    E-----------------------------------------------------------------------------------|
    
    E------0-----/--1---1---1-----/--2--2--2----/--3---3---3---3---------------0-----/--|
    B--1---1--1--/--1---1---1--1--/--3--3--3-3--/--3---3---3---3-3----1---1---1--1--/--|
    G--2---2--2--/--2---2---2--2--/--2--2--2-2--/--4---4---4---4-4----2---2---2--2--/--|
    D--2---2--2--/--3---3---3--3--/--4--4--4-4--/--5---5---5---5-5----2---2---2--2--/--|
    A--0------0--/--3---3------3-------------5--/--5---5---5-----5----0---0------0--/--|
    E-----------------------------------------------------------------------------------|
    
    E--1----1---1-----/--3---3---3-----3--3--3---3---3---------------0-----/--1---1---1-|
    B--1----1---1--1--/--3---3---3--3--3--3--3---3---3-3----1---1---1--1--/--1---1---1-|
    G--2----2---2--2--/--4---4---4--4--4--4--4---4---4-4----2---2---2--2--/--2---2---2-|
    D--3----3---3--3--/--5---5---5--5--5--5--5---5---5-5----2---2---2--2--/--3---3---3-|
    A--3----3------3--/--5---5------5------------------5----0---0------0--/--3---3-----|
    E-----------------------------------------------------------------------------------|
    
    						     Guitar Solo
    E----/--2--2--2----/--3---3--3----/--4---4-----4------------8-7~-5-h7p5-------------|
    B-1--/--3--3--3-3--/--3---3--3-3--/--5---5---5-5---|--5-7-8-------------8--7~--7b(8)|
    G-2--/--2--2--2-2--/--4---4--4-4--/--4---4---4-4---|--------------------------------|
    D-3--/--4--4--4-4--/--5---5--5-5--/--6---6---6-6---|--------------------------------|
    A-3-------------5--/--5---5----5--/--7---7---7-----|--------------------------------|
    E-----------------------------------------------------------------------------------|
    
    E-------8-7h8p7-------------------7-------5-------5p0~------------------------------|
    Br7-5~----------7~--7-7/8~--7-/-8---8--7---5-/-8------------7-8-10-----------------|
    G-------------------------------------------------------7-9---------7~--8~--8-9-11-|
    D-----------------------------------------------------------------------------------|
    A-----------------------------------------------------------------------------------|
    E-----------------------------------------------------------------------------------|
    
    									     Bridge
    E-----------------7-8-9-10----------------------------------------------------2---2-|
    B-8-10-12-12~----8---------10-/-11~-10--8~----10-10-7--/10--10-/-12--12~---|--4---4-|
    G---------------9----------------------------------------------------------|--4---4-|
    D--------------------------------------------------------------------------|--4---4-|
    A--------------------------------------------------------------------------|--2---2-|
    E-----------------------------------------------------------------------------------|
    
     (2)
    E---2----0---0---0----/-0---0---0---0---0--0---0---/-2---2---2----0---0---0----/-0|
    B---4-4--0---0---0-0--/-1---1---1-1-1-1-1--1---1-1-/-3---3---3-3--0---0---0-0--/-1|
    G---4-4--0---0---0-0--/-0---0---0-0-0-0-0--0---0-0-/-2---2---2-2--0---0---0-0--/-0|
    D---4-4--2---2---2-2--/-2---2---2-2-2-2-2--2---2-2-/-0---0-----0--2---2---2-2--/-2|
    A-----2--2---2-----2--/-3---3-----3---3----3-----3----------------2---2-----2--/-3|
    E--------0---0----------------------------------------------------0---0-----------|
    
    E---0---0-3--3-3-3-32-2-p0---0---/-2---2---2----0---0---0----/--0---0---2-2--0---|
    B---1---1-1--1-1-1-1-1-1--1-1-1-1-/-3---3---3-3--0---0---0-0--/--1---1---1-1--1---|
    G---0---0-0--0-0-0-0-0-0--0-0-0-0-/-2---2---2-2--0---0---0-0--/--0---0---0-0--2---|
    D---2---2-2--2-2-2-2-2-2--2-2-2-2-/-0---0-----0--2---2---2-2--/--2---2---2-2--2---|
    A---3-----------------------3---3----------------2---2-----2--/--3---3--------0---|
    E------------------------------------------------0---0-----------------------------|
    
    									   Chorus (2
    E-0---0----/-2---2---2-----0---0---0----/--0---0--/---------------5--------0---0---|
    B-1---1-1--/-3---3---3-3---0---0---0-0--/--1---1--/--8-8--7--7---7-7---|--1---1-1-|
    G-2---2-2--/-2---2---2-2---0---0---0-0--/--0---0--/--7-7---7--7---7-7---|--0---0-0-|
    D-2---2-2--/-0---0-----0---2---2---2-2--/--2---2--/--7-7---7--7---7-7---|--2---2-2-|
    A-0-----0------------------2---2-----2--/--3---3--/--5-5---5--5-----5---|--3-----3-|
    E--------------------------0---0---------------------------------------------------|
    
     )
    E--2---2-----0---0---0----/-0---0-----2---2-----0---0---0----/-0---0-----2---2------|
    B--3---3-3---0---0---0-0--/-1---1-1---3---3-3---0---0---0-0--/-1---1-1---3---3-3--/-|
    G--2---2-2---0---0---0-0--/-0---0-0---2---2-2---0---0---0-0--/-0---0-0---2---2-2--/-|
    D--0-----0---2---2---2-2--/-2---2-2---0-----0---2---2---2-2--/-2---2-2---0-----0--/-|
    A------------2---2-----2--/-3-----3-------------2---2-----2--/-3-----3------------/-|
    E------------0---0------------------------------0---0-------------------------------|
    
    E--2---2----0---0----/-0---0-----2---2-----0(~~--------------------||
    B--4---4-4--0---0-0--/-1---1-1---3---3-3---0)~~---|----------------||
    G--4---4-4--0---0-0--/-0---0-0---2---2-2---0(~~---|----Chorus-(3)--|| end
    D--4---4-4--2---2-2--/-2---2-2---0-----0---2)~~---|--(Keyboards&)--||
    A--2-----2--2-----2--/-3-----3-------------2(~~---|----(Vocals)----||
    E-----------0------------------------------0)~~--------------------||
    
    --------------------------------------------------------------------------------------
    
     Rhythm Guitar during Guitar Solo			      x2
    E---0---0---0----/--2---2---2-----0---0---0---0---0---0---0---------0---0----0----/|
    B---1---1---1-1--/--3---3---3-3---0---0---0---0---0---0---0-----|---1---1----1-1--/|
    G*--0---0---0-0--/--2---2---2-2---0---0---0-0-0-0-0---0---0-0--*|---0---0----0-0--/|
    D*--2---2---2-2--/--0---0-----0---2---2--/4-4-4-4-4---4---4-4--*|---2---2----2-2--/|
    A---3---3-----3-------------------2---2---2-2-2-2-2---2---2-2---|---3---3------3---|
    E---------------------------------0---0-----0---0-----------0----------------------|
    
    E--2---2---2----/--2---2---2------0---0---0-------0---0---0----/--2---2---2-------0|
    B--3---3---3-3--/--4---4---4-4----0---0---0-0-----1---1---1-1--/--3---3---3-3----1|
    G--2---2---2-2--/--4---4---4-4----0---0---0-0-----0---0---0-0--/--2---2---2-2----0|
    D--0---0-----0--/--4---4---4-4----2---2---2-2-/4~-2---2---2-2--/--0---0-----0----2|
    A---------------/--2---2-----2----2---2-----2-----3---3-----3--------------------3|
    E---------------------------------0---0--------------------------------------------|
    
    E---0---0----/--2---2---2-----||
    B---1---1-1--/--3---3---3-3---||
    G---0---0-0--/--2---2---2-2---|| end
    D---2---2-2--/--0---0-----0---||
    A---3-----3-------------------||
    E-----------------------------||
    
    --------------------------------------------------------------------------------------
    
    =======================
    =TABLATURE EXPLANATION=
    =======================
    
    A.H. = Artificial Harmonic
    
    pm..| = Palm mute
    
    h = hammer on
    
    p = pull off
    
    / = slide up
    
     = slide down
    
    ~ = Vibrato
    
    b() = Bend
    
    x = Pick Slide
    
    --------
    --------
    ---12--- = Tremolo pick
    ----/---
    ----/---
    ----/---
    
    ---.---
    --12--- = Staccato
    -------
    -------
    -------
    
    |     |
    |     |
    |*   *| = repeat from * to *
    |*   *| 
    |     |
     

    Тональность:

    Это должно быть в ТОП-листе! - Топ-лист композиций



    Назад
    Рекомендуем посмотреть другие песни исполнителя «Sonata Arctica»:

    • Комменты Fb ()
    • Комменты ВК



    Добавить в Избранное Браузера
    Сохранить здесь Очистить


    x

    0


    +
    -

    +
    -

    -

    Авторизация





    Зарегистрироваться

    M

    Дата и время

    • 05:11:33
       

    Социальные ссылки


    Наши приложения

    • Muzbank App Play Market
    • Muzbank Amazon App