MUZBANK



A MOST COMPLETE BANK OF MUSIC INFORMATION

МУЗЫКАЛЬНО-ИНФОРМАЦИОННЫЙ БАНК







    SSoulFly • Bleed (аккорды и текст - chords & lyrics)


    359

    Print

    Видео «Bleed (SoulFly)»

    Видео клипы к песне подбираются автоматически сайтом youtube. Возможны некоторые несоответствия клипов песне.

    ↑ Спрятать рекламу ↑





     
    
    
    BLEED
    
    from: SOULFLY
    
    Tunned to C#?
    
    e|---------------------------|
    B|---------------------------|
    G|---------------------------|
    D|---------------------------|
    A|---------------------------|
    E|--2^0--3^0--2-3-2-0-3^2^0--|
    
    e|-------------------|
    B|-------------------|
    G|-------------------|
    D|-------------------|
    A|--2--2---2-2--2----|
    E|--0--0---0-0--0----|
    
    e|--------------------------------------|
    B|--------------------------------------|
    G|--------------------------------------|
    D|--------------------------------------|
    A|--8-x-8-x-8-x-8-11-11-11-11-11--|
    E|--6-x-6-x-6-x-6-9--9--9--9--9---|
    
    e|-------------------------------|
    B|-------------------------------|
    G|-------------------------------|
    D|-------------------------------|
    A|--4-2-2--2--4-2-2--4-2-4-5-5---|
    E|--2-0-0--0--2-0-0--2-0-2-3-3---|
    
    e|-------------------------------|
    B|-------------------------------|
    G|-------------------------------|
    D|-------------------------------|
    A|-------------------------------|
    E|--2-0-0-----2-0-0------2-3-3---|
    
    e|-------------------|
    B|-------------------|
    G|-------------------|
    D|-------------------|
    A|-------------------|
    E|--2^3-3-3-3^2-2-2--|
    
    Tabbed by Vogi (vogi@geocities.com)
     

    Тональность:

    Это должно быть в ТОП-листе! - Топ-лист композиций



    Назад
    Рекомендуем посмотреть другие песни исполнителя «SoulFly»:

    • Комменты Fb ()
    • Комменты ВК



    Добавить в Избранное Браузера
    Сохранить здесь Очистить


    x

    0


    +
    -

    +
    -

    -

    Авторизация





    Зарегистрироваться

    M

    Дата и время

    • 23:33:49
       

    Социальные ссылки


    Наши приложения

    • Muzbank App Play Market
    • Muzbank Amazon App