MUZBANK



A MOST COMPLETE BANK OF MUSIC INFORMATION

МУЗЫКАЛЬНО-ИНФОРМАЦИОННЫЙ БАНК







    SSoulFly • Bumbklaat (аккорды и текст - chords & lyrics)


    310

    Print

    Видео «Bumbklaat (SoulFly)»

    Видео клипы к песне подбираются автоматически сайтом youtube. Возможны некоторые несоответствия клипов песне.

    ↑ Спрятать рекламу ↑





     
    
    
    BUMBKLAATT
    
    from: SOULFLY
    
    Tunned to C#?
    
    e|------------------|
    B|------------------|
    G|------------------|
    D|------------------|
    A|--some harmonics--|
    E|------------------|
    
                     3x
    e|-----------------|------------|
    B|-----------------|------------|
    G|-----------------|------------|
    D|-----------------|------------|
    A|--3-3-2-3-/8--6--|--3-3--3-3--|
    E|--1-1-0-1-/6--4--|--1-1--1-1--|
    
    e|------------|
    B|------------|
    G|------------|
    D|------------|
    A|--2-2--2-2--|
    E|--0-0--0-0--|
    
    e|---------|
    B|---------|
    G|---------|
    D|---------|
    A|---------|
    E|--0-0-1--|
    
    Tabbed by Vogi (vogi@geocities.com)
     

    Тональность:

    Это должно быть в ТОП-листе! - Топ-лист композиций



    Назад
    Рекомендуем посмотреть другие песни исполнителя «SoulFly»:

    • Комменты Fb ()
    • Комменты ВК



    Добавить в Избранное Браузера
    Сохранить здесь Очистить


    x

    0


    +
    -

    +
    -

    -

    Авторизация





    Зарегистрироваться

    M

    Дата и время

    • 05:04:14
       

    Социальные ссылки


    Наши приложения

    • Muzbank App Play Market
    • Muzbank Amazon App