MUZBANK



A MOST COMPLETE BANK OF MUSIC INFORMATION

МУЗЫКАЛЬНО-ИНФОРМАЦИОННЫЙ БАНК







    SSoulFly • Eye For An Eye (аккорды и текст - chords & lyrics)


    305

    Print

    Видео «Eye For An Eye (SoulFly)»

    Видео клипы к песне подбираются автоматически сайтом youtube. Возможны некоторые несоответствия клипов песне.

    ↑ Спрятать рекламу ↑





     
    
    Tuning - Drop D tuning, tuned down 1 and a half steps 
    Low to high = B F# B E G# C#
    
    
    Key 
    pm = palm mute
    b = bend
    * = pinched harmonics 
    
    intro/verse (guitar 1&2)   
    |----------------------------------------------------------|
    |----------------------------------------------------------|
    |----------------------------------------------------------|
    |----------------------------------------------------------|
    |---0--2-2--0--2-2--3--0-----------------------------------|
    |---0--2-2--0--2-2--3--0-----------------------------------|
    x3 then                                                                              
    
    |----------------------------------------------------------|
    |----------------------------------------------------------|
    |----------------------------------------------------------|
    |----------------------------------------------------------|
    |---0-0-0--0-0--0-0--0-------------------------------------|
    |---0-0-0--0-0--0-0--0-------------------------------------|
                                                                                  
    chorus  (guitar 1&2)
    |----------------------------------------------------------|
    |----------------------------------------------------------|
    |----------------------------------------------------------|
    |----------------------------------------------------------|
    |---0-2-2--3-2-2--3-2-2--3-2-2-----------------------------|
    |---0-2-2--3-2-2--3-2-2--3-2-2-----------------------------|
                                                                                  
    post chorus (guiatr 1)
    |----------------------------------------------------------|
    |----------------------------------------------------------|
    |----------------------------------------------------------|
    |----------------------------------------------------------|
    |---0-2-2-2--3-2-2-2--3-2-2-2--3-2-2-2---------------------|
    |---0-2-2-2--3-2-2-2--3-2-2-2--3-2-2-2---------------------|
                                                                                  
    fill before second verse (guitar 2)
    |----------------------------------------------------------|
    |--------*0*-----------------------------------------------|
    |----------------------------------------------------------|
    |----------------------------------------------------------|
    |----------------------------------------------------------|
    |---0------------------------------------------------------|
    pm  -
    
    solo part 1 (guitar 1)  w/wah wah pedal                                                                            
    |--10-10-10-10-10-10-10-10-12b-12b-12b-12b--15-15-15-15-15-|
    |----------------------------------------------------------|
    |----------------------------------------------------------|
    |----------------------------------------------------------|
    |----------------------------------------------------------|
    |----------------------------------------------------------|
    listen to the CD for the correct timing
    
    solo rydtem (guiatr 2)
    |----------------------------------------------------------|
    |----------------------------------------------------------|
    |----------------------------------------------------------|
    |----------------------------------------------------------|
    |---0-2-2--3-2-2--0-2-2--0---------------------------------|
    |---0-2-2--3-2-2--0-2-2--0---------------------------------|
    pm  - - -  - - -  - - -  -
                                                                                  
    solo part 2 (guitar 1)   w/wah wah pedal  
    |----------------------------------------------------------|
    |----------------------------------------------------------|
    |----------------------------------------------------------|
    |-7-7-7-9-9-9-10-10-10-12-12-12-10-10-10-9-9-9-7-7-7-6-6-6-|
    |----------------------------------------------------------|
    |----------------------------------------------------------|
    
    end riff (guitar 1&2)                                                                              
    |----------------------------------------------------------|
    |----------------------------------------------------------|
    |----------------------------------------------------------|
    |----------------------------------------------------------|
    |---0--2-2---0-2-2---0-2-2---0-2-2-------------------------|
    |---0--2-2---0-2-2---0-2-2---0-2-2-------------------------|
                                                                                  
    outro (guitar 1)
    |----------------------------------------------------------|
    |----------------------------------------------------------|
    |----------------------------------------------------------|
    |----------------------------------------------------------|
    |---6--5--4--3--2--1---------------------------------------|
    |---6--5--4--3--2--1---------------------------------------|
    pm  -  -  -  -  -  -                                                                              
    
     
     
    
     

    Тональность:

    Это должно быть в ТОП-листе! - Топ-лист композиций



    Назад
    Рекомендуем посмотреть другие песни исполнителя «SoulFly»:

    • Комменты Fb ()
    • Комменты ВК



    Добавить в Избранное Браузера
    Сохранить здесь Очистить


    x

    0


    +
    -

    +
    -

    -

    Авторизация





    Зарегистрироваться

    M

    Дата и время

    • 03:28:12
       

    Социальные ссылки


    Наши приложения

    • Muzbank App Play Market
    • Muzbank Amazon App