MUZBANK



A MOST COMPLETE BANK OF MUSIC INFORMATION

МУЗЫКАЛЬНО-ИНФОРМАЦИОННЫЙ БАНК







    SSoulFly • One (аккорды и текст - chords & lyrics)


    345

    Print

    Видео «One (SoulFly)»

    Видео клипы к песне подбираются автоматически сайтом youtube. Возможны некоторые несоответствия клипов песне.

    ↑ Спрятать рекламу ↑





     
    
    
    Soulfly - One - III
    
    Tabbed by Elvisz(elvisz@kornkids.com)
    
    Intro:(with delay and distorion)
    |------------13~^~-----12^~-|
    |-10~~------------10~-------|
    |-----9~~10~~--------9~-----|
    |---------------------------|
    |---------------------------|
    |---------------------------|
    
    Chorus:
    |------------------------|
    |------------------------|
    |------------------------|
    |------------------------|
    |-1-1-10-0-0-11-1-10-0-0-|
    |-1-1-10-0-0-11-1-10-0-0-|
    
    Verse:
    |--------|
    |--------|
    |--------|
    |--------|
    |-XX--XX-|
    |-XX--XX-|
    
    Pre-bridge:
    |------------------------|
    |------------------------|
    |------------------------|
    |------------------------|
    |-1-1-10-0-0-11-1-10-0-0-|
    |-1-1-10-0-0-11-1-10-0-0-|
    
    Bridge1:(with delay and distorion)
    |--------13~^~------12^~-|
    |-9~~10~~-----9~~10~-----|
    |------------------------|
    |------------------------|
    |------------------------|
    |------------------------|
    
    Chorus:
    |------------------------|
    |------------------------|
    |------------------------|
    |------------------------|
    |-1-1-10-0-0-11-1-10-0-0-|
    |-1-1-10-0-0-11-1-10-0-0-|
    
    Verse:
    |--------|
    |--------|
    |--------|
    |--------|
    |-XX--XX-|
    |-XX--XX-|
    
    Pre-bridge:
    |------------------------|
    |------------------------|
    |------------------------|
    |------------------------|
    |-1-1-10-0-0-11-1-10-0-0-|
    |-1-1-10-0-0-11-1-10-0-0-|
    
    Bridge2:(with delay and distorion)
    |--------|-13-13^-13-13^-13-13^-13-13^-13----|-13-13^-13-13^-13-13^-13-13^-13-|
    |-9^%^%^%|-------------------------------10~~|--------------------------------|
    |--------|-----------------------------------|--------------------------------|
    |--------|-----------------------------------|--------------------------------|
    |--------|-----------------------------------|--------------------------------|
    |--------|-----------------------------------|--------------------------------|
    
    Chorus:
    |------------------------|
    |------------------------|
    |------------------------|
    |------------------------|
    |-1-1-10-0-0-11-1-10-0-0-|
    |-1-1-10-0-0-11-1-10-0-0-|
    
    Verse:
    |--------|
    |--------|
    |--------|
    |--------|
    |-XX--XX-|
    |-XX--XX-|
    
    Chorus:
    |------------------------|
    |------------------------|
    |------------------------|
    |------------------------|
    |-1-1-10-0-0-11-1-10-0-0-|
    |-1-1-10-0-0-11-1-10-0-0-|
    
    Verse:
    |--------|
    |--------|
    |--------|
    |--------|
    |-XX--XX-|
    |-XX--XX-|
    
    Chorus:
    |------------------------|
    |------------------------|
    |------------------------|
    |------------------------|
    |-1-1-10-0-0-11-1-10-0-0-|
    |-1-1-10-0-0-11-1-10-0-0-|
    
    Outro:(with delay and distorion)
    |--------|-13-13^-13-13^-13-13^-13-13^-13----|-13-13^-13-13^-13-13^-13-13^-13-|
    |-9^%^%^%|-------------------------------10~~|--------------------------------|
    |--------|-----------------------------------|--------------------------------|
    |--------|-----------------------------------|--------------------------------|
    |--------|-----------------------------------|--------------------------------|
    |--------|-----------------------------------|--------------------------------|
     

    Тональность:

    Это должно быть в ТОП-листе! - Топ-лист композиций



    Назад
    Рекомендуем посмотреть другие песни исполнителя «SoulFly»:

    • Комменты Fb ()
    • Комменты ВК



    Добавить в Избранное Браузера
    Сохранить здесь Очистить


    x

    0


    +
    -

    +
    -

    -

    Авторизация





    Зарегистрироваться

    M

    Дата и время

    • 05:02:38
       

    Социальные ссылки


    Наши приложения

    • Muzbank App Play Market
    • Muzbank Amazon App